Mclusky - You Should Be Ashamed Seamus Chords & Tabs

 

You Should Be Ashamed Seamus Chords & Tabs

Mclusky Chords & Tabs

Version: 1 Type: Bass Tab 0 ratings
1 star 2 stars 3 stars 4 stars 5 stars
comments

You Should Be Ashamed Seamus Bass Tab

   
-------------------------------------------------------------------------------
		You Should Be Ashamed, Seamus- MCLUSKY
-------------------------------------------------------------------------------

Album: the difference between me and you is that I'm not on fire

Tabbed by:

Email:

Tuning: Standard - E A D G

Intro:
[ Tab from: http://www.guitartabs.cc/tabs/m/mclusky/you_should_be_ashamed_seamus_btab.html ]
G|-----------------------------------------------------------------|
D|-----------------------------------------------------------------|
A|-----------------------------------------------------------------|
E|-2^3-3-3-3-4-4-4-4p0-0-0-0-0-0-0-6-6-6-6-6p5-5-5-5p0-0-0-0-0-0-0-|
PM=================================================================|

Verse/Chorus/: (with distortion)

G|-----------------------------------------------------------------|
D|-----------------------------------------------------------------|
A|-----------------------------------------------------------------|
E|-3-3-3-3-3-4-4-4-4-0-0-0-0-0-0-0-6-6-6-6-6-5-5-5-5-0-0-0-0-0-0-0-|

Random part with screaming: (Distorted guitar)

e|-------------------------------------|
B|-------------------------------------|
G|-------------------------------------|
D|-5^9---2-2---2-2---2-2---2-2---2-2-2-|
A|-------2-2---2-2---2-2---2-2---2-2-2-|
E|-------0-0---0-0---0-0---0-0---0-0-0-|
Comments