Mclusky - Whoyouknow Chords & Tabs

 

Whoyouknow Chords & Tabs

Mclusky Chords & Tabs

Version: 2 Type: Tab 0 ratings
1 star 2 stars 3 stars 4 stars 5 stars
comments

Whoyouknow Tab

mclusky - who you know
tabbed by kevin ryan (x_is_loaded@hotmail.com)


Verse
-----

* = harmonic
        
E [-----------------------------------]
B [-----------------------------------]
G [-------------------7-9---9---------]
D [-2---2-2--2---2-2--7-9---9---------]
A [-2---2-2--2---2-2--5-7---7---3---3-]
E [-0---0-0--0---0-0------------------]
                                *   *


Bridge
------

E [------------------------]
B [-7------5------3------9-]
G [-8------6------4------9-]
D [-9------7------5------9-]
A [-9------7------5------7-]
E [------------------------]


Chorus
------

Guitar
[ Tab from: http://www.guitartabs.cc/tabs/m/mclusky/whoyouknow_tab_ver_2.html ]
E [---------------------------------------]
B [---------------------------------------]
G [-9---x---9-9---x---9-9-9-x---9---9-9-9-]
D [-9---x---9-9---x---9-9-9-x---9---9-9-9-]
A [-7---x---7-7---x---7-7-7-x---7---7-7-7-]
E [---------------------------------------]

E [---------------------------------------]
B [---------------------------------------]
G [---------------------------------------]
D [-9---x---9-9---x---9-9-9-x---9---9-8-8-]
A [-9---x---9-9---x---9-9-9-x---9---9-8-8-]
E [-7---x---7-7---x---7-7-7-x---7---7-6-6-]

E [---------------------------------------]
B [---------------------------------------]
G [---------------------------------------]
D [-7---x---7----7-7-7-5---x---5---5-5-5--]
A [-7---x---7----7-7-7-5---x---5---5-5-5--]
E [-5---x---5----5-5-5-3---x---3---3-3-3--]

E [---------------------------------------]
B [---------------------------------------]
G [---------------------------------------]
D [--2---2-2--2---2-2--2--2-2--2--2--2----]
A [--2---2-2--2---2-2--2--2-2--2--2--2----]
E [--0---0-0--0---0-0--0--0-0--0--0--0----]


* = harmonic
x = mute note
Comments