Mclusky - Whoyouknow Chords & Tabs

 

Whoyouknow Chords & Tabs

Mclusky Chords & Tabs

Version: 1 Type: Tab 0 ratings
1 star 2 stars 3 stars 4 stars 5 stars
comments

Whoyouknow Tab

   
----------------------------------------------------------------------------
			     Whoyouknow - Mclusky
----------------------------------------------------------------------------
Tabbed by: Mclusky lover
Email:ultimate_roadkill@hotmail.com 

Tuning: Normal

Chorus
e|------------------------|
B|------------------------|
G|1-1-----1-1---------1-1-|
D|2-2-----2-2---------2-2-|
A|2-2-5/7-2-2-5/7-7/7-2-2-|
E|----3/5-----3/5-5/9-----|
[ Tab from: http://www.guitartabs.cc/tabs/m/mclusky/whoyouknow_tab.html ]
Bridge
e|-----------|
B|-----------|
G|---------1-|
D|---------2-|
A|9--7--5--2-|
E|7--5--3----|

Verse
e|------------------------|
B|------------------------|
G|----------------------1-|
D|----------------------2-|
A|9-9-9-9-8-7-7-7-7-5-5-2-|
E|7-7-7-7-6-5-5-5-5-3-3---|

 /  slide 

I love Mclusky, This is my first ever guitar tab if  there are mistakes then email me
ultamate_roadkill@hotmail.com (ultimate is spelt wrong I know)
 HELLO SOL
Comments