Mclusky - Whoyouknow Chords & Tabs

 

Whoyouknow Chords & Tabs

Mclusky Chords & Tabs

Version: 1 Type: Bass Tab 0 ratings
1 star 2 stars 3 stars 4 stars 5 stars
comments

Whoyouknow Bass Tab

mclusky - who you know
tabbed by kevin ryan (x_is_loaded@hotmail.com)


Verse
-----

G [---------------------------]
D [---------------------------]
A [-------------------5-7---7-]
E [-0-0-3-4--0-0-3-4----------]


Bridge
------

G [--------------------------]
D [--------------------------]
A [--------------------------]
E [-7------5------3------7---]


Chorus
------
[ Tab from: http://www.guitartabs.cc/tabs/m/mclusky/whoyouknow_btab.html ]
G [-----------------------------------------------------]
D [-----------------------------------------------------]
A [-7---7-7---7-7-7--7--7-7-7---------------------------]
E [---------------------------7---7-7---7-7-7--7--7-6-6-]

G [----------------------------------------------------------]
D [----------------------------------------------------------]
A [----------------------------------------------------------]
E [-5---5-5-5-5-5-3---3-3-3-3-3-0-0-3-4-0-0-3-4-0-0-0--0-0-0-]
Comments