Mclusky - She Will Only Bring You Happiness Chords & Tabs

 

She Will Only Bring You Happiness Chords & Tabs

Mclusky Chords & Tabs

Version: 1 Type: Tab 0 ratings
1 star 2 stars 3 stars 4 stars 5 stars
comments

She Will Only Bring You Happiness Tab

   
mclusky - she will only bring you happiness
tabbed by kevin ryan (x_is_loaded@hotmail.com)


Intro/Verse:


Guitar 1

E [---------------------------------------------]
B [---------------------------------------------]
G [-------------------------9-9-9-10-11-11-11-9-]
D [-11-11-11-11-11-11-11-11-0-0-0--0--0--0--0-0-]
A [-0--0--0--0--0--0--0--0----------------------]
E [---------------------------------------------]


Guitar 2

E [---0---0---0---0-----------------]
B [-2---2---0---0-------------------]
G [-----------------2-2---2-2-2-4-4-]
D [---------------------4-----------]
A [---------------------------------]
E [---------------------------------]
[ Tab from: http://www.guitartabs.cc/tabs/m/mclusky/she_will_only_bring_you_happiness_tab.html ]
E [---0---0---0---0-----------------]
B [-2---2---0---0-------------------]
G [-----------------2---2---2---2---] bend each note on this string slightly
D [---------------------------------]
A [---------------------------------]
E [---------------------------------]


Chorus


Guitar 1

plays D & A barre's x3, then back to A


Guitar 2

    D               A
E [---0---0---0---0---0---0---0---0-]
B [-7---7---7---7---5---5---5---5---]
G [---------------------------------]
D [---------------------------------]
A [---------------------------------]
E [---------------------------------]

    A
E [----0----0----0----0---0---0---0------]
B [-10---10---10---10--------------------]
G [---------------------9---9---9---11---]
D [--------------------------------------]
A [--------------------------------------]
E [--------------------------------------]


another guitar comes in and plays below riff over lyrics 'our old singer...'

B [----14----14----14----14-]
G [-------------------------]
D [-11----11----11----11----]
Comments