Mclusky - Lightsabre Cocksucking Blues Chords & Tabs

 

Lightsabre Cocksucking Blues Chords & Tabs

Mclusky Chords & Tabs

Version: 1 Type: Tab 0 ratings
1 star 2 stars 3 stars 4 stars 5 stars
comments

Lightsabre Cocksucking Blues Tab

   
Lightsabre Cocksucking Blues
Tabbed by Kevin Ryan (x_is_loaded@hotmail.com)


Verse Riff

           A           G   E
E [---]  [---------------------]
B [---]  [---------------------]
G [---]  [---------------------]
D [-2-]  [-7-7-x-7---5-5---2---]
A [-2-]  [-7-7-x-7---5-5---2---]
E [-0-]  [-5-5-x-5---3-3---0---]


Chorus Riff
[ Tab from: http://www.guitartabs.cc/tabs/m/mclusky/lightsabre_cocksucking_blues_tab.html ]
   D      Bb  B     G     Bb  B    D      Bb  B     E     Bb  B     G     Bb  B     E*    Bb  B     E
E [---------------------------------------------------------------------------------------------------]
B [---------------------------------------------------------------------------------------------------]
G [-7-7-7---------------------------7-7-7-------------------------------------------7-7-7-------------]
D [-7-7-7-8---9-9-9-5---5-8---9-9-9-7-7-7-8---9-9-9-2---2-8---9-9-9-5---5-8---9-9-9-7-7-7-8---9-9-9-2-]
A [-5-5-5-8---9-9-9-5---5-8---9-9-9-5-5-5-8---9-9-9-2---2-8---9-9-9-5---5-8---9-9-9-5-5-5-8---9-9-9-2-]
E [-------6---7-7-7-3---3-6---7-7-7-------6---7-7-7-0---0-6---7-7-7-3---3-6---7-7-7-------6---7-7-7-0-]



2nd Chorus Riff

    E
E [-------------------------]
B [-------------------------]
G [-------------------------]
D [-2-2-2-2-2-2-2-2-2-2-2-2-]
A [-2-2-2-2-2-2-2-2-2-2-2-2-]
E [-0-0-0-0-0-0-0-0-0-0-0-0-]


    E     Bb  B     G     Bb  B     D     Bb  B       E
E [---------------------------------------------------------------------------]
B [---------------------------------------------------------------------------]
G [---------------------------------7-7-7-------------------------------------]
D [-2-2-2-8---9-9-9-5-5-5-8---9-9-9-7-7-7-8---9-9-9---2-2-2-2-2-2-2-2-2-2-2-2-]
A [-2-2-2-8---9-9-9-5-5-5-8---9-9-9-5-5-5-8---9-9-9---2-2-2-2-2-2-2-2-2-2-2-2-]
E [-0-0-0-6---7-7-7-3-3-3-6---7-7-7-------6---7-7-7---0-0-0-0-0-0-0-0-0-0-0-0-]
Comments