Mclusky - Day Of The Deadringers Chords & Tabs

 

Day Of The Deadringers Chords & Tabs

Mclusky Chords & Tabs

Version: 1 Type: Tab 0 ratings
1 star 2 stars 3 stars 4 stars 5 stars
comments

Day Of The Deadringers Tab

Mclusky - Day Of The Deadringers
Tabbed by Kevin Ryan (x_is_loaded@hotmail.com)

Intro

                        (     ----------    repeat    ----------     )

E [----------------------------12---11-10-9--------------------------]
B [-9------9---------------9-9----------------9-9-10-11-s-12-12-11-10]
G [-9---11-----11-9--------------------------------------------------]
D [-9-------------9--------------------------------------------------]
A [-x----------------------------------------------------------------]
E [-0----------------------------------------------------------------]


Verse
[ Tab from: http://www.guitartabs.cc/tabs/m/mclusky/day_of_the_deadringers_tab.html ]
E [------------------------]
B [-9------9------9------9-]
G [-9------9------9------9-]
D [-9------9------9------9-]
A [-x------x------x------x-]
E [-0------0------0------0-]


Chorus

E [------12---11-10-9---------------------------]
B [--9-9----------------9-9-10-11-s-12-12-11-10-]
G [---------------------------------------------]
D [---------------------------------------------]
A [---------------------------------------------]
E [---------------------------------------------]


Outro

E [----------------------------- ....> -------------------------------------------------]
B [-11---11---11---12-12-12----- ....> -11-11-11-11-11-11-11-11-12-12-12-12-12-12-12-12-]
G [-9----9----9----9--9--9-- etc ....> -9--9--9--9--9--9--9--9--9--9--9--9--9--9--9--9--]
D [----------------------------- ....> -------------------------------------------------]


s = slide
Any Corrections please mail to x_is_loaded@hotmail.com
Comments