Mclean Don - Vincent Chords & Tabs

 

Vincent Chords & Tabs

Mclean Don Chords & Tabs

Version: 1 Type: Tab 1 rating
1 star 2 stars 3 stars 4 stars 5 stars
comments

Vincent Tab

   
#----------------------------------PLEASE NOTE---------------------------------#
#This file is the author's own work and represents their interpretation of the #
#song. You may only use this file for private study, scholarship, or research. #
#------------------------------------------------------------------------------#

From: etlnbb@etlxd20.ericsson.se ( neil bergin xd/gk)
Subject: TAB: Vincent - Don McLean

Posted by: FRANCIS@gribb.hsr.no (Wilhelmsen, Lee F.     8-95 )
Date: Wed, 19 Jan 1994 11:41:41 GMT


Notation symbols:

s : slide
h : hammer on
p : pull off

Have fun!


VincentDon McLean
--------

verse:

Starry, starry night...

  [Repeat twice each verse]
e|---------3-----3-------3-------0----------------------------------0---
b|---------0-----0-1-----1-0-----0--3---1p0-------1-0-----0-0h1---------
g|-----0h2-----0-------0-------0------0---------2-------2---------2-----
D|-0h2-------0-------0-------0----------------2-------2---------2-------
A|------------------------------------------0-------0-------0-----------
E|---------3-------3-----3-3--------3---3-------------------------------
                                                        1 verse only
e|--------------------------------4p3--------3--------|-----------------
b|-0---1----------1-0-----0-----3-----3---3------0----|-1s3s1p0-0-------
g|---2---2------0-------0-----2---------2----------0--|---------0----0--
D|------------2-------2-----0------------------0------|-2s4s2p0----0----
A|-0--------3-------3---------------------------------|-----------------
E|-------------------------------------------3--------|---------3-------
[ Tab from: http://www.guitartabs.cc/tabs/m/mclean_don/vincent_tab.html ]
Chorus:
Now I understand...
e|------------------------0-2-----------2-------------------------------
b|-0-1-3-0--------0-1---3-------1-------3----------------------0---3----
g|-0------------2-----2-------2---2---2---2-0---0----------------0---0--
D|------------2-------------0-----------------0---4---4-2---2------2----
A|---0-2----0-----------------------0---------------5-----2-------------
E|-3----------------------------------------3-----2-----0------0--------
                                             They would not listen, ...
e|-----------------------2-------2---------
b|-1-----1-0---0h1-------1-------3---------
g|-----0-----2-----2---2---2---2---2-------  pause
D|---2---------------0-------0-------------
A|-0-------0-------------------------2-----
E|-----------------------------------0-----
                                       ** 1st chorus only.
e|----------0-----------0-2-----2---3-|-------2---0--------0------------
b|------2---2---2-1---1-----1---------|---0---------0--3----------------
g|------0-------0-----0-------2-------|-----0---0--------0--------------
D|----2---2---2-----2---2-0-----------|-0-------------------------------
A|--0-------------0-------------------|---------------------------------
E|----------------------------------3-|-------3--------3----------------

Bridge:
For they could not love you...
e|-----------0-----0---2-------2-----------------------0----------------
b|-0-3-1-------3-----------1-------3---------0-------0------------------
g|---------2-----2---2---2---2---2-----0---0---0---0---------0----------
D|-------2-------------0-------------0---0-------0---------2---2--------
A|-0-2-0-------0---------------0-------------------------2-------2------
E|-------------------------------------3-------2-------0----------------
               ..took your life like lovers often do...
e|--0------3------------------------------0-----------------------------
b|--1------4----------0-------0---------3-------------------------------
g|--0------5----------0-------2-------1---------------------------------
D|--2------5--------0---0---1---1---0--------(0)------------------------
A|--0------3------------------------------------------------------------
E|----------------3-------1-------0-------------------------------------

But I could have told you Vincent...
e|-----------------------------------------0-2--3-----------------------
b|-------------1--------1-------0--------1----------0---1---0-------0---
g|-----2-------0--------0-------0------2--------------0---0---0-----0---
D|---2---2---2---2----2---2---2---2--0------------0-----2---0-----0---0-
A|-0-------0--------3-------3-------------------------------------------
E|----------------------------------------------3---------------3-------

** end
e|-------2---0--------0-------------------------------3-----------------
b|---0---------0--3-------1---0-----------0-----0-----------------------
g|-----0---0--------0-------0---0-----0-2-----0-------------------------
D|-0------------------------------0-2-------0---------------------------
A|----------------------------------------------------------------------
E|-------3--------3-------3---------------3-----------------------------



transcribed by:

Lee Francis Wilhelmsen
francis@GRIBB.hsr.no
francis@hsr.no

19(C)94





Vincent van Gogh (1853-1890) Dutch Painter
Comments