Mclachlan Sarah - Ice Chords & Tabs

 

Ice Chords & Tabs

Mclachlan Sarah Chords & Tabs

Version: 1 Type: Tab 0 ratings
1 star 2 stars 3 stars 4 stars 5 stars
comments

Ice Tab

   
#----------------------------------PLEASE NOTE---------------------------------#
#This file is the author's own work and represents their interpretation of the #
#song. You may only use this file for private study, scholarship, or research. #
#------------------------------------------------------------------------------##

                                       ICE
                         As recorded by Mclachlan Sarah
                   (From the 1994 EP FUMBLING TOWARDS ECSTACY)


Gtr I (D A D G A D) - 'capo 3rd fret'

  Q=62
 4/4
  Gtr I
  E S S S S S S S S S S S S S S   S S S S S S S S S S S S S S S S
|-------0-----0-----------------|---------0-------------------------|
|-----0-----0-------0-----0-----|---0---0-------0-----0-------------|
|---2-----0-------0-----0-----0-|-----0-------0-----0-------0---0---|
|---------------3-----2---------|-----------3-----2-----2h3---------|
|---------------------------0---|-----------------------------0-----|
|-0-----------------------------|-0---------------------------------|


  S S S S S S S S S S S S S S S S   S S S S S S S S S S S S S S S S
|---------0-----0-----------------|---------0-------------------------||
|---0---0-----0-------0-----0-----|---0---0-------0-----0-------------||
|-----2-----0-------0-----0-----0-|-----0-------0-----0-------0---0---||
|-----------------3-----2---------|-----------3-----2-----2h3---------||
|-----------------------------0---|-----------------------------0-----||
|-0-------------------------------|-0---------------------------------||


    S S S S S S S S S S S S S S S S   S S S S S S S S S S S S S S S S
||----------0-----0-----------------|---------0------------------------|
||o---0---0-----0-------0-----0-----|---0---0-------0-----0------------|
||------2-----0-------0-----0-----0-|-----0-------0-----0-------0---0--|
||------------------3-----2---------|-----------3-----2-----2h3--------|
||o-----------------------------0---|-----------------------------0----|
||--0-------------------------------|-0--------------------------------|


  S S S S S S S S S S S S S S S S   S S S S S S S S S S S S S S S S
|-------0-------------------------|-------0---------------0-----------|
|-----------0-----------0-------0-|-----------0-------0-------0-------|
|---0-----0-----0---0-------0-----|---0-----0-----0---------0-----0---|
|-----2-------0-------3-------3---|-----2-------2-------2-------2-----|
|-3---------------1---------------|-0---------------0-----------------|
|-------------------------3-------|-----------------------------------|


  S S S S S S S S S S S S S S S S   S S S S S S S S S S S S S S S S
|---------0-----0-----------------|---------0-------------------------|
|---0---0-----0-------0-----0-----|---0---0-------0-----0-------------|
|-----2-----0-------0-----0-----0-|-----0-------0-----0-------0---0---|
|-----------------3-----2---------|-----------3-----2-----2h3---------|
|-----------------------------0---|-----------------------------0-----|
|-0-------------------------------|-0---------------------------------|


  S S S S S S S S S S S S S S S S   S S S S S S S S S S S S S S S S
|-------0-------------------------|-----------0---------------0-------|
|-----------0-----------0-------0-|-------0-------0-------0-------0---|
|---0-----0-----0---0-------0-----|---0-----0---------0-----0---------|
|-----2-------0-------3-------3---|-----2-------2-------2-------0-----|
|-3---------------1---------------|-0---------------0-----------------|
|-------------------------3-------|-----------------------------------|


  1.
  S S S S S S S S S S S S S S S S   S S S S S S S S S S S S S S S S
|-------0---------------0---0-----|---------0-----0-------------------|
|-----------0-------------------0-|---0---0-----0-------0-----0-------|
|---0-----0-----0---0-----0-------|-----2-----0-------0-----0-----0---|
|-----3-------3-------2-------2---|-----------------3-----2-----------|
|-1---------------0---------------|-----------------------------3-----|
|---------------------------------|-0---------------------------------|


                           2.
  S S S S S S S S H        S S S S S S S S S S S S S S S S
|-------0---------------||-------0---------------0---0--------|
|-----------0----------o||-----------0-------------------0----|
|---0-----0-----0-------||---0-----0-----0---0-----0----------|
|-----3-------3---2-----||-----3-------3-------2-------2------|
|-1---------------0----o||-1---------------0------------------|
|-----------------------||------------------------------------|


  S S S S S S S S S S S S S S S S   S S S S S S S S S S S S S S S S
|---------0-----0-----------------|-------0---------------0---0-------|
|---0---0-----0-------0-----0-----|-----------0-------------------0---|
|-----2-----0-------0-----0-----0-|---0-----0-----0---0-----0---------|
|-----------------3-----2---------|-----3-------3-------2-------2-----|
|-----------------------------3---|-1---------------0-----------------|
|-0-------------------------------|-----------------------------------|


  S S E S S E E. S +E  S S   S S S S S S S S S S S S S S S S
|--------------------------|-------0---------------0------------|
|-----0-----0--------------|-----------0---------------0--------|
|---------0--------------0-|---0-----0-----0---0-----0-----0----|
|---3---2-----3--2-(2)-----|-----3-------3-------2-------2------|
|----------------------3---|-1---------------0------------------|
|-0------------------------|------------------------------------|


  S S E S S S S E. S +E  S S   S S S S S S S S S S S S S S S S
|-----------0----------------|-------0-------------------0--------||
|-----0-------0--------------|-----------0-----------0-------0----||
|---2-----0------------------|---0-----0-----0---0-----0---0------||
|-------2-------3--2-(2)---2-|-----3-------3-------2--------------||
|------------------------3---|-1---------------0------------------||
|-0--------------------------|------------------------------------||


  S S S S S S S S S S S S S S S S   S S S S S S S S S S S S S S S S
|-------0-------0-------0-------0-|---------------0-------0-------0---|
|---5-------5-------5-------5-----|---4---4---4-------4-------4-------|
|-----0-------0-------0-------0---|-----0-------0-------0-------0-----|
|-3-------3-------3-------3-------|-2-------2-------2-------2---------|
|---------------------------------|-----------------------------------|
|---------------------------------|-----------------------------------|


  S S S S S S S S S S S S S S S S   S S S S S S S S S S S S S S S S
|-------0-------0-------0-------0-|-------0-------0-------0-------0---|
|---3-------3-------3-------3-----|---0-------0-------0-------0-------|
|-----0-------0-------0-------0---|-----0-------0-------0-------0-----|
|-1-------1-------1-------1-------|-0-------0-------4-------4---------|
|---------------------------------|-----------------------------------|
|---------------------------------|-----------------------------------|

[ Tab from: http://www.guitartabs.cc/tabs/m/mclachlan_sarah/ice_tab.html ]
  S S S S S S S S S S S S S S S S   S S S S S S S S S S S S S S S S
|-------0-------0-------0-------0-|-------0-------0-------0-------0---|
|---5-------5-------5-------5-----|---4-------4-------4-------4-------|
|-----0-------0-------0-------0---|-----0-------0-------0-------0-----|
|-3-------3-------3-------3-------|-2-------2-------2-------2---------|
|---------------------------------|-----------------------------------|
|---------------------------------|-----------------------------------|


  S S S S S S S S S S S S S S S S   +E   S S S S S S S S S S +Q
|-------0-------0-------0-------0-|-(0)------0-----0----------------|
|---3-------3-------3-------3-----|--------0-----0-------0----------|
|-----0-------0-------0-------0---|------2-----0-------0------------|
|-1-------1-------1-------1-------|------------------3-----2-(2)----|
|---------------------------------|---------------------------------|
|---------------------------------|---------------------------------|


  W          W          W          W
|----------|----------|----------|------|
|----------|----------|----------|------|
|----------|----------|----------|------|
|----------|----------|----------|------|
|----------|----------|----------|------|
|----------|----------|----------|------|


  W                     W
|------------|---------------|
|------------|---------------|
|------------|---------------|
|------------|---------------|
|------------|---------------|
|------------|---------------|


  Q   E. S +S  S S S S S S S     S S E  S S S S S S S S +E     S S
|------------------0-----------|--------0-----0---------------------|
|--------------0-------0-------|-----0------0-------0---------------|
|--------0-(0)-------0-----0---|---2------0-------0--------------0--|
|----------------2-------2-----|----------------3-----2-(2)---------|
|------------------------------|-------------------------------0----|
|------------------------------|-0----------------------------------|


  E E +S  S S S S S S S S S E   S S S S S S S S S S S S S S S S
|-----------------------------|-------0----------------------------|
|-------------0-----0---------|-----------0-----------0-------0----|
|---0-(0)---0-----0-------0---|---0-----0-----0---0-------0--------|
|---------3-----2-----2h3-----|-----2-------0-------3-------3------|
|---------------------------0-|-3---------------1------------------|
|-0---------------------------|-------------------------3----------|


  S S S S S S S S S S S S S S S S   S S S S S S S S S S S S S S S S
|-------0-------------------------|-------0---------------0---0-------|
|-----------0-----------0---0-----|-----------0-------------------0---|
|---0-----0-----0---0-----0-----0-|---0-----0-----0---0-----0---------|
|-----2-------2---2---2-------0---|-----3-------3-------2-------2-----|
|-0-------------------------------|-1---------------0-----------------|
|---------------------------------|-----------------------------------|


  S S S S S S S S S S S S S S S S   S S S S S S S S S S S S S S S S
|---------0-----0-----------------|-------0---------------0---0-------|
|---0---0-----0-------0-----0-----|-----------0-------------------0---|
|-----2-----0-------0-----0-----0-|---0-----0-----0---0-----0---------|
|-----------------3-----2---------|-----3-------3-------2-------2-----|
|-----------------------------3---|-1---------------0-----------------|
|-0-------------------------------|-----------------------------------|


  S S S S S S S S S S S S S S S S   S S S S S S S S S S S S S S S S
|---------0-----0-----------------|-------0---------------0---0-------|
|---0---0-----0-------0-----0-----|-----------0-------------------0---|
|-----2-----0-------0-----0-----0-|---0-----0-----0---0-----0---------|
|-----------------3-----2---------|-----3-------3-------2-------2-----|
|-----------------------------3---|-1---------------0-----------------|
|-0-------------------------------|-----------------------------------|


  S S S S S S S S S S S S S S S S   S S S S S S S S S S S S S S S S
|---------0-----0-----------------|-------0-------------------0-------|
|---0---0-----0-------0-----0-----|-----------0-----------0-------0---|
|-----2-----0-------0-----0-----0-|---0-----0-----0---0-----0---0-----|
|-----------------3-----2---------|-----3-------3-------2-------------|
|-----------------------------3---|-1---------------0-----------------|
|-0-------------------------------|-----------------------------------|


  S S S S S S S S S S S S S S S S   S S S S S S S S S S S S S S S S
|---------0-----0-----------------|-------0-------------------0-------|
|---0---0-----0-------0-----0-----|-----------0-----------0-------0---|
|-----2-----0-------0-----0-----0-|---0-----0-----0---0-----0---------|
|-----------------3-----2---------|-----3-------3-------2-------2-----|
|-----------------------------3---|-1---------------0-----------------|
|-0-------------------------------|-----------------------------------|


                      H.=H
  S S S S S S S S S S S S S S S S   S S S S S S S S +E  E     +Q
|---------0-----0-----------------|-------0--------------------------*|
|---0---0-----0-------0-----0-----|-----------0----------------------*|
|-----2-----0-------0-----0-----0-|---0-----0-----0-(0)-0-----(0)----*|
|-----------------3-----2---------|-----3-------3-------2-----(2)----*|
|-----------------------------3---|-1-------------------0-----(0)----*|
|-0-------------------------------|----------------------------------*|


Duration Legend
---------------
W - whole; H - half; Q - quarter; E - 8th; S - 16th; T - 32nd; X - 64th; a - acciaccatura
+ - note tied to previous; . - note dotted; .. - note double dotted
Uncapitalized letters represent notes that are staccato (1/2 duration)
Irregular groupings are notated above the duration line
Duration letters will always appear directly above the note/fret number it represents the
duration for.  Duration letters with no fret number below them represent rests.  Multi-
bar rests are notated in the form Wxn, where n is the number of bars to rest for.  Low
melody durations appear below the staff

Tablature Legend
----------------
 h   - hammer-on
 p   - pull-off
 b   - bend
 pb  - pre-bend
 r   - bend release (if no number after the r, then release immediately)
 /\  - slide into or out of (from/to "nowhere")
 s   - legato slide
 S   - shift slide
  - natural harmonic
[n]  - artificial harmonic
n(n) - tapped harmonic
 ~   - vibrato
 tr  - trill
 T   - tap
 TP  - trem. picking
 PM  - palm muting
\n/  - tremolo bar dip; n = amount to dip
 \n  - tremolo bar down
 n/  - tremolo bar up
/n\  - tremolo bar inverted dip
 =   - hold bend; also acts as connecting device for hammers/pulls
   - volume swell (louder/softer)
 x   - on rhythm slash represents muted slash
 o   - on rhythm slash represents single note slash

Misc Legend
-----------
 |  - bar
||  - double bar
||o - repeat start
o|| - repeat end
*|  - double bar (ending)
 :  - bar (freetime)
 $  - Segno
 &  - Coda
Tempo markers -  = BPM(8/16=s8/s16), where s8 = swing 8ths, s16 = swing 16ths


***************************************************************************************
* Generated using Power Tab Editor by Brad Larsen - http://powertab.guitarnetwork.org *
***************************************************************************************
Comments