Mcknight Bryan - One Last Cry Chords & Tabs

 

One Last Cry Chords & Tabs

Mcknight Bryan Chords & Tabs

Version: 1 Type: Tab 0 ratings
1 star 2 stars 3 stars 4 stars 5 stars
comments

One Last Cry Tab

   
-=One Last Cry=-
by bryan Mcknight
tabbed by ian
iangonzo@hotmail.com

[Solo Guitar] d notes insyd a parenthesis r substitute 4 d piano notes, its optional ;)

e|-------------------|-----------------------|--12p10p10-----------|-15p15-------------------|
B|-------------------|-----10/12p10p10-------|-(10)----------------|-13p13p12p---------------|
G|------9/11-11h12---|----------------(12----|----------(12-11-11--|----------14p12p11p12p12-|
D|--(9)---------(10)-|-9p10--------------12)-|---------------------|-------------------------|
A|-------------------|-----------------------|---------------------|-------------------------|
E|-------------------|-----------------------|---------------------|-------------------------|
[ Tab from: http://www.guitartabs.cc/tabs/m/mcknight_bryan/one_last_cry_tab.html ]
e|--------------------10/12p10-|---------------------|-15----15p15-------|------15----------|
B|------------10/12p10---------|---------------------|-13-12-------------|------15----------|
G|-(11-12)---------------------|----11/12-11-11-9----|-12-12-14p14-12p12-|(11----(11-12-----|
D|--------10)------------------|(12---------------12)|-------------------|---10)--------12)-|
A|-----------------------------|---------------------|-------------------|------------------|
E|-----------------------------|---------------------|-------------------|------------------|

e|-15----------------------|-12~-11-------14/15/14h15p14~-|
B|-15p15h17p13h15------12)-|---12--10---------------------|
G|--------------(12-14-----|---------11p11----------------|
D|-------------------------|------------------------------|
A|-------------------------|------------------------------|
E|-------------------------|------------------------------|

[Legend]
/ slide
h hammer
p pluck
( ) piano
~ twang!

This is all for now, i may be able 2 finish d whole song if i hv d tym, n 4 d mean tym
MANIGAS KAYO!!!
Comments