Mcfly - Unsaid Things Chords & Tabs

 

Unsaid Things Chords & Tabs

Mcfly Chords & Tabs

Version: 1 Type: Tab 0 ratings
1 star 2 stars 3 stars 4 stars 5 stars
comments

Unsaid Things Tab

1|-------------------------------------------|
2|-0-1-3-1-0-1--------0-1-3-1-0-1------------|
3|-------------2----2-------------2----------|
4|-------------------------------------------|
5|-------------------------------------------|
6|-------------------------------------------|


1|-------0-----------------------------------|
2|---0-1---3-1---3-1---------0-1-3-4---------|
3|-2-----------2-----2-----------------------|
4|-------------------------------------------|
5|-------------------------------------------|
6|-------------------------------------------|
[ Tab from: http://www.guitartabs.cc/tabs/m/mcfly/unsaid_things_tab.html ]
Comments