Mcfly - Too Close For Comfort Chords & Tabs

 

Too Close For Comfort Chords & Tabs

Mcfly Chords & Tabs

Version: 1 Type: Tab 0 ratings
1 star 2 stars 3 stars 4 stars 5 stars
comments

Too Close For Comfort Tab

   
================================
--------------------------------
Too Close for Comfort (Tab)
Acoustic Version
McFLY

One or two guitars. 

any corrections email to:
benson@dougiepoynter.net

lyrics thx dp.net forum members

www.dougiepoynter.net
--------------------------------
================================

INTRO

G (4) GM7/F# (4) EM7 (4) C (1) CMb5/E (1) C (1) Cm (1) x 2

PRE-VERSE

Em (4) Em (1) Emadd9 (1) Em (1) x 2


VERSE

  Em                 C                  
E|------------------|------------------|
B|------------------|-----3-------3----|
G|-----0-------0----|---0---0---0---0--|
D|---2---4---2---4--|------------------|
A|------------------|-3-------3--------|
E|-0-------0--------|------------------|
  Never meant..     ..sorry         It's..

  D        C         G       Em
E|------------------|------------------|
B|-----0-------3----|------------------|
G|---2---2---0---0--|-----2-2----------|
D|-0----------------|---0-------0-2-4-5|
A|---------3--------|-------------2-2-2|
E|------------------|-3-------3---0-0-0|
            ..mistakes

 Em                 C                 
E|------------------|------------------|
B|------------------|-----3-------3----|
G|-----0-------0----|---0---0---0---0--|
D|---2---4---2---4--|------------------|
A|------------------|-3-------3--------|
E|-0-------0--------|------------------|
 I dont..       ..reasons         Theres     

  D        C          Em
E|------------------|-------------0----|
B|-----0-------3----|-------------3----|
G|---2---2---0---0--|-------------0----|
D|-0----------------|-2-2-2-2-2-2-2----|
A|---------3--------|-2-2-2-2-2-2-2----|
E|------------------|-0-0-0-0-0-0-0----|
 tears..          ..late


CHORUS

N.C      C   D           Esus2*  Em
Was I inva__ding on your secrets?

                    C  
Was I too close for comfort, 
                  D                  G
you're pushing me out, when I wanted in.

           C    D          Esus2*  Em
What was I just about to discover__?
                         C       
When I got too close for comfort, 
            D                      Em
Driving you home, guess i'll never know.


PRE-VERSE

Em (4) Em (1) Emadd9 (1) Em (1) x 2


VERSE

  Em                 C                  
E|------------------|------------------|
B|------------------|-----3-------3----|
G|-----0-------0----|---0---0---0---0--|
D|---2---4---2---4--|------------------|
A|------------------|-3-------3--------|
E|-0-------0--------|------------------|
  Remember...        ..me         

  D        C         G       Em
E|------------------|------------------|
B|-----0-------3----|------------------|
G|---2---2---0---0--|-----2-2----------|
D|-0----------------|---0-------0-2-4-5|
A|---------3--------|-------------2-2-2|
E|------------------|-3-------3---0-0-0|
and now..           ..words
[ Tab from: http://www.guitartabs.cc/tabs/m/mcfly/too_close_for_comfort_tab.html ]
 Em                 C                 
E|------------------|------------------|
B|------------------|-----3-------3----|
G|-----0-------0----|---0---0---0---0--|
D|---2---4---2---4--|------------------|
A|------------------|-3-------3--------|
E|-0-------0--------|------------------|
And everything.. ..paper       

  D        C          Em
E|------------------|-------------0----|
B|-----0-------3----|-------------3----|
G|---2---2---0---0--|-------------0----|
D|-0----------------|-2-2-2-2-2-2-2----|
A|---------3--------|-2-2-2-2-2-2-2----|
E|------------------|-0-0-0-0-0-0-0----|
 The one..            ..you go


CHORUS

N.C      C   D           Esus2*  Em
Was I inva__ding on your secrets?
                    C  
Was I too close for comfort, 
                  D                  G
you're pushing me out, when I wanted in.
           C    D          Esus2*  Em
What was I just about to discover__?
                         C       
When I got too close for comfort, 
            D                      Em
Driving you home, guess i'll never know.


INTERLUDE

Esus2*  Em                           C
All this time you've been telling me lies
                                   D
Hidden in bags that are under your eyes
          D#m                       EM7
And I when I asked you I knew I was right

                                C
But if you turn your back on me now

When I need you most
                    D     C#m   B
But you just let me down, down, down
          Em**
Won't you think about what you're about to do to me
         Cm
And back down__________________.


EXTENDED CHORUS

N.C      C   D           Esus2*  Em
Was I inva__ding on your secrets?
                    C  
Was I too close for comfort, 
                  D                  G
you're pushing me out, when I wanted in.
           C    D          Esus2*  Em
What was I just about to discover__?
                    C      
I got too close for comfort, 
                  D                  G
You're pushing me out, when I wanted in__. (Yeaaah)
           C    D          Esus2*  Em
What was I just about to discover__?
                         C         
When I got too close for comfort,
            D                          G
Driving you home____, guess i'll never know_.

OUTRO

G (4) GM7/F# (4) EM7 (4) C (1) CMb5/E (1) C (1) Cm (1) x 2

E|-0------0--12*--0-|
B|--0-----0--12*--0-|
G|---0----0--12*--0-|
D|----2---2--12*--2-|
A|-----2--2-------2-|
E|------0-0-------0-|

*Harmonics.

___________________________________
APPENDIX

Esus2* - Hammer from Esus2 to Em in the root 5 seventh fret position. x 3
   v   ^  v   ^  v   ^
E|-7-7-7--7-7-7--7-7-7-|
B|-7h8-8--7h8-8--7h8-8-|
G|-9-9-9--9-9-9--9-9-9-|
D|-9-9-9--9-9-9--9-9-9-|
A|-7-7-7--7-7-7--7-7-7-|
E|---------------------|

Em** is basically Root 5 Em with a bass run down to C
(when playing the song on one guitar) as such:

E|-7-7-7--7---------|
B|-8-8-8--8---------|
G|-9-9-x--x---------|
D|-9-9-9--9---------|
A|-7-6-7--7---------|
E|-----10-9---------|
Comments