Mcfly - Surfer Babe Chords & Tabs

 

Surfer Babe Chords & Tabs

Mcfly Chords & Tabs

Version: 1 Type: Tab 0 ratings
1 star 2 stars 3 stars 4 stars 5 stars
comments

Surfer Babe Tab

   
CAPO- 1st Fret

Harry hits drumsticks:
1,2,1,2,3,4
G
Well its quarter to four
                                    C
We're hanging out at the pizza place
G
and we've all got our boards
                                  D
later on we're gonna catch the waves
   (Guitar 2)
    D
e--2-2-0--3-3-2--------------------------------------------------------------|
B----------------3-----------------------------------------------------------|
G----------------------------------------------------------------------------|
D----------------------------------------------------------------------------|
A----------------------------------------------------------------------------|
E----------------------------------------------------------------------------|

G
well that's what i said when i left her in bed
            C
with the radio on and the book she read
G
let the truth be known
            D
i just wanna date a surfer babe
G                            C
i hope i'm not a little too late
                               G
i never know what you're gonna say
     D
you don't think you're my type
C
but you are, but you are, but you are, but you are
G
you know i just
                                C
don't know how i'm gonna get through this

thing that i've been feeling for
G               D
you don't think i know your name
C
but i do, but i do, but i do

you're a surfer babe

G      D Dsus4     C
[ Tab from: http://www.guitartabs.cc/tabs/m/mcfly/surfer_babe_tab.html ]
G
you know it's hard when things
                               C
never seem to want to go your way
 G
but i got this feeling that its not
                 D
gonna happen today
    (guitar 2)
 Dsus4 D
e---3--2--0--2---------------------------------------------------------------|
B---------------3--0---------------------------------------------------------|
G---------------------2--0---------------------------------------------------|
D----------------------------------------------------------------------------|
A----------------------------------------------------------------------------|
E----------------------------------------------------------------------------|
              G
you know i've looked around

for a girl in LA
                C
and you're the prettiest face

that has walked my way
G
since i met you girl
            D                G
i just wanna date a surfer babe
                              C
i hope i'm not a little too late
                                 G
i never know what you're gonna say
         D
you don't think you're my type
C
but you are, but you are, but you are, but you are
       G
you know i just don't know how i'm gonna
       C
get through this thing that i've been feeling for
G             D
you don't think i know you're name
C
but i do, but i do, but i do

you're a surfer babe

Bm                                        C
And i've been waiting for the girl like you
        Bm                    C
anticipating how to make my move
                Bm                  C
coz there is nothing i would rather do
                           Bm  D  C
than catch some waves with you

The next part is finger-picking but I
haven't figured it out yet.
G
You're a surfer babe
                             C
i hope i'm not a little too late
                                 G
i never know what you're gonna say
      D
you don't think you're my type
C
but you are, but you are,but you are, but you are
G
you know i just don't know how i'm gonna
     C
get through this thing that i've been feeling for
G        D
you don't think i know you're name
C
but i do, but i do, but i do
G
you're a surfer babe
Comments