Mcfly - Saturday Night Chords & Tabs

 

Saturday Night Chords & Tabs

Mcfly Chords & Tabs

Version: 1 Type: Tab 0 ratings
1 star 2 stars 3 stars 4 stars 5 stars
comments

Saturday Night Tab

   
Artist - McFly
Song - Saturday Night (Solo)
Album - Room On The Third Floor
Standard Tuning (e,B,G,D,A,e)

Here is the solo to one of the best McFly songs!!!!
you will have 2 use a Wah Wah effect on it heavily 2 get that right sound!!

Key:
h = hammer on
p = pull off
s = slide
hb = half bend
B = bend
~ = vibrato


e|---------------------------------------------------|
B|--------------------------------------------11b----|
G|-9h11p9-9h11p9-9h11p9-9h11p9-9h11---------9-11b----|
D|----------------------------------9-11-11----------|
A|---------------------------------------------------|
E|---------------------------------------------------|


e|------9-9---9-9----9-9---9-9---9-9-12-12-11-11-9-9-|
B|-8hb9-----9------9-----9-----9---------------------|
G|---------------------------------------------------|
D|---------------------------------------------------|
A|---------------------------------------------------|
E|---------------------------------------------------|

[ Tab from: http://www.guitartabs.cc/tabs/m/mcfly/saturday_night_tab.html ]
e|-8s1212b-12---------------------------------------|
B|-------------14-12-14-12~-12-12--------------------|
G|--------------------------------9h11p9-9h11p9------|
D|---------------------------------------------------|
A|---------------------------------------------------|
E|---------------------------------------------------|


e|---------------------------------------------------|
B|---------------------------------------------------|
G|--9h11p9-9h11p911b12-11b12-9----911b12-11b12-----|
D|------------------------------11-------------------|
A|---------------------------------------------------|
E|---------------------------------------------------|


e|--------------------------------------------------|
B|--------------------------------------------------|
G|-11-9----9----------------------------------------|
D|------11---11-------------------------------------|
A|--------------------------------------------------|
E|--------------------------------------------------|

And ther u have it the whole solo, i know its not 100% perfect but it sounds good 2 me. 
u have any questions, corections or watever just e-mail me 2 let me know wat u think at ljenkins040@aol.com
thanx :)
Comments