Mcfly - Room On The Third Floor Chords & Tabs

 

Room On The Third Floor Chords & Tabs

Mcfly Chords & Tabs

Version: 1 Type: Bass Tab 0 ratings
1 star 2 stars 3 stars 4 stars 5 stars
comments

Room On The Third Floor Bass Tab

   
Room On The Third Floor

This is probably not completely similar to what Dougie plays, and if you get to hear it live,
it's probably way different, but this must come close to the album track.
G|-----------------------------------------------------------------------------------------|
D|-----------------------------------------------------------------------------------------|
A|----------------------------------7------------------------------7777-6666-4-------------|
E|-0----0--_-0---0-2----2-5----7---------7-0----0-2----2-5----7--------------------7-5----5|
	     Room on the third floor...	       One bed is broken...			  

G|----------------------------------------------------------------------------------------------|
D|----------------------------------------------------------------------------------------------|
A|-7---6----4-----------------------------------------------------------------------------------|
E|--------------7-5-5--0000000_0000000_00000000222222225555777700000000-000000002222222255557777|
	                    	  Wake up early...		   Do not disturbsign...
[ Tab from: http://www.guitartabs.cc/tabs/m/mcfly/room_on_the_third_floor_btab.html ]
G|----------------------------------------------------------------------------------------------|
D|----------------------------------------------------------------------------------------------|
A|7777666644444444--------777766664444----------------------------------------------------------|
E|----------------55555555------------7777555555555--0000000000000000--5555555555555555000000000|
                                                                      Nanananaa..

G|----------------------------------------------------------------------------------------------|
D|----------------------------------------------------------------------------------------------|
A|--------------------------------------------------------9-97979797979797----------------------|
E|000000055555555666666667777777777777777-5555555554545454----------------5----5--00000000000000|

G|-------------------------------------------------------------------------------------------|
D|-------------------------------------------------------------------------------------------|
A|-------------------------------------------------------------------------------------------|
E|00000000000-0-0-0-555555555555555500000000000000005555555566666666777777777777777-555555555|

G|-------------------------------------|
D|-------------------------------------|
A|--------9-97979797979797-------------|
E|4545454----------------5-5-0--0-0--0~|
Comments