Mcfly - Obviously Chords & Tabs

 

Obviously Chords & Tabs

Mcfly Chords & Tabs

Version: 1 Type: Bass Tab 0 ratings
1 star 2 stars 3 stars 4 stars 5 stars
comments

Obviously Bass Tab

its my first time tabbing, so please do inform me of any corrections. thanks!

nic.

G|-----------------------|-----------------------------|
D|--6-6---8-6-3---8-6-3--|-------8-6-3---8-6-3---------|
A|------4-------4--------|-----4-------4---------------|
E|-----------------------|-----------------------------|
 1. She's got a boyfriend    He drives her round the bend
 2. Gotta escape now         Get on a plane now, yeah   

G|---------------------------------|-------------------|
D|---------------------------------|-----8-6-3--8-6-3--|
A|-----------8-6-3---8-6-3---------|---4------4--------|
E|---------4-------4---------------|-------------------|
 1. Cos' he's 23, he's in the marines   He'd kill me
 2. Off to L.A, and that's where I'll stay, for two years

G|------------------------|-----------------------------------|
D|-----4-4-444------------|------4-4-444---8-6-3-6-6----------|
A|-------------4-4-444----|------------------4----------------|
E|------------------------|-----------------------------------|
  1. For so many nights now     I find myself thinking about her now
  2. I'll put it behind me (x2) Go to a place where she can't find me, oh..
[ Tab from: http://www.guitartabs.cc/tabs/m/mcfly/obviously_btab.html ]
G|-----------------|---------------|------------------|--------------------|
D|-----------------|---3-33-333----|------4-44-444----|----5-55-555--------|
A|----4-44-444-----|---------------|------------------|--------------------|
E|-----------------|---------------|------------------|--------------------|
 1. Cos obviously, she's outa my league   But how can I win, she keeps dragging me in
 2. Cos obviously, she's outa my league   I'm wasting my time, she'll never be mine

G|--------------------------------------------------------------|
D|-----4---4--4--4--6--6--6--6-------8-6-3---8-6-3-------------|
A|---------------------------------4--------4-------------------|
E|--------------------------------------------------------------|
 1. and I know I never will be good enough for her, no no..
 2. and I know I never will be good enough for her, no no..

G|--------------------------------------------------------------|
D|-----4---4--4--4--6--6--6--6-------8-6-3---8-6-3-------------|
A|---------------------------------4--------4-------------------|
E|--------------------------------------------------------------|
 1. Never will be good enough for her..
 2. Never will be good enough for her..

G|-----------------------------------------|-------------------------------|
D|-----------------------------------------|------------------3-4-6-3------|
A|--------------3-44--44-3-----------------|----------3-4-6-6---------4----|
E|--------3-5-6------------6---------------|-------------------------------|
Bridge: She's outa my head and I'll never know where I stand, cos I know I'm not good enough for her.
Comments