Mcfly - Not Alone Chords & Tabs

 

Not Alone Chords & Tabs

Mcfly Chords & Tabs

Version: 1 Type: Bass Tab 0 ratings
1 star 2 stars 3 stars 4 stars 5 stars
comments

Not Alone Bass Tab

Not Alone Bass Tabs

I've never seen the bass tabs around on the net.. So I thought I'd figure them out
and put 'em here.. Dunno if it's completely right, I figured it out on an acoustic
guitar and I've never seen McFly playing live cuz I live in stupid Holland, but here
it goes.

Intro
G----------------------------------------------|
D----------------------------------------------|
A-4----2------------------4--6-7-2-------------|
E-----------5-7-5----5----------------2-5----5-|

Verse 1
G---------------------------------|
D---------------------------------|
A---------------------------------|
E-0---0---5---7---0---0---4-5---7-|

  Life, is getting harder, day by day
  And I, I don't know what to do, what to say, yeah

Pre-Chorus
G-----------------------------------------------------|
D----6-----4------------------6-----4-----------------|
A-4----4-2----2----7----2--4----4-2---2-------7-------|
E----------------5----5--------------------5-----4-5--|

  And my mind, is growing weak, every step I take
  It's uncontrolable, now they think I'm fake, yeah

Chorus
G-----------------------------------------|
D--------------------7------------------7~|
A-7-7--2-2------------------7-7--2-2------|
E----------4-5-5---5---7-5----------5-5---|

  Cuz I'm not alone, no no no
  But I'm not alone, no no no
  I'm not alone...
[ Tab from: http://www.guitartabs.cc/tabs/m/mcfly/not_alone_btab.html ]
Verse2
G------------------------------------------------------------------------------|
D------------------------------------------------------------------------------|
A-------------------------------------------------------------------------7----|
E-0--0---0--0---0--0---0--0---5--5--9-7--7---0--0---0--0-7-4-5--5--5-7--7---7--|
		And I, I get on the train on my own, yeah
                My tired radio keeps playing tired songs
Pre-Chorus
G-----------------------------------------------------|
D----6-----4------------------6-----4-----------------|
A-4----4-2----2----7----2--4----4-2---2-------7-------|
E----------------5----5--------------------5-----4-5--|
  And I know, that there's not long to go, oh
  When all I wanna do, is just go home

Chorus
G-----------------------------------------|
D--------------------7------------------7~|
A-7-7--2-2------------------7-7--2-2------|
E----------4-5-5---5---7-5----------5-5---|
(Yeah, yeah, but I'm not a - )
  lone, no no no
  But I'm not alone, no no no
  I'm not alone...

Bridge
G------------------------------------------------------------------------------------------------|
D------------------------------------------------------------------------------------------------|
A------------------------------------------------------------------------------------------------|
E-00000000222222223333333355555555000000002222222233333333555555550000000022222222555555555~--5--|
  People rip me for the clothes, I wear, yeah
  Everyday seems to be the same
  They just swear, yeah
  They just don't care,
  They just don't care,
  They just don't care

Chorus
G-----------------------------------------|
D--------------------7------------------7~|
A-7-7--2-2------------------7-7--2-2------|
E----------4-5-5---5---7-5----------5-5---|
(But I'm not a - )
  lone, no, no, no
  But I'm not alone, no no no
  I'm not alone

(The same for the nana-bit, only not the exact same amount and with a small
disortion which I couldn't figure out - end on string E--5~...)

Outro
G---------------------------|
D---------------------------|
A---------------------------|
E-0-0---3--5-7--5-5--7~-0~--|
(But I'm not a - )
  lone, nanananaa, yeahyeah,
  I'm not alone...

Note: Lyrics are placed where the singing is started, not how it continues
if you know what I mean ^^

By Mandy
Comments