Mcfly - No Worries Chords & Tabs

 

No Worries Chords & Tabs

Mcfly Chords & Tabs

Version: 1 Type: Tab 0 ratings
1 star 2 stars 3 stars 4 stars 5 stars
comments

No Worries Tab

   
McFly - No Worries (B Side to 'I'll Be Ok', from their second album, 'Wonderland,'released 29/08/05))

Tabbed by Fiona McAuley, Belfast.
Please send queries, comments and corrections tooo fiona1099@hotmail.com !

Standard Tuning.
[LEAD]
e|-s/13-12-11----------10h11-13-12-11----------10h11-10--------------------
B|------------13--11h13---------------13--11h13--------11--13-11-10--10-11-
G|-------------------------------------------------------10--------12------
D|-------------------------------------------------------------------------
A|-------------------------------------------------------------------------
E|-------------------------------------------------------------------------

       ------13------|         -------13-------13------------|
 1st   -13(b15)-13u13|   2nd   -13(b15)--13(b15)--13b13u-11--|
 time  --------------|   time  ------------------------------|
       --------------|         ------------------------------|
       --------------|         ------------------------------|
       --------------|         ------------------------------|

[RHYTHM]
   Bb   F     Eb   F     Gm   Dm   Cm    F
e|-6----8-----6----8-----3----5----3-----8--8--8--8--8--8--|\
B|-6----10----8----10----3----6----4-----10-10-10-10-10-10-| \
G|-7----10----8----10----3----7----5-----10-10-10-10-10-10-|  \Repeat (more strumming)
D|-8----10----8----10----5----7----5-----10-10-10-10-10-10-|  /
A|-8----8-----6----8-----5----5----3-----8--8--8--8--8--8--| /
E|-6----8-----6----8-----3----5----3-----8--8--8--8--8--8--|/



Bb                                 Dm
We ran past strawberry fields and smelt the summertime.
Gm                               Eb            F
When it gets dark I'll hold your body close to mine,
Bb                                 Dm
And then we'll find some wood and hell, we'll build a fire,

[Fill here on lead]
e|-----------------|
B|-----6-6-6---6h8-|
G|-s/7-------7-----|
D|-----------------|
A|-----------------|
E|-----------------|

Gm                                 Eb             F
And then we'll find some rope and make a swinging tire.

Eb                F
Captivated by the way you look, 
Bb          Dm       Gm       Cm    C
Tonight the light is dancing in your eyes..
            Eb      F
Your sweet eyes.

[LEAD]

e|------------------------------------------------|
B|-----------------------------11-11--11-11h12-12-|
G|---------7--10-12-12----10h12-------------------|
D|-----8h10---------------------------------------|
A|-8h10-------------------------------------------|
E|------------------------------------------------|   

[ Tab from: http://www.guitartabs.cc/tabs/m/mcfly/no_worries_tab.html ]
N.C.                   Bb        F                    Eb          F
Times like these we'll never forget, staying out to watch the sunset,
Gm          Dm              Cm        F
I'm glad I shared this with you.
       Bb         F                      Eb            F
'Cause you set me free, show me how good my life could be.
Gm           Dm        Ebm                Bb
How did this happen to me?    Ye-eah, ooh-oh.


[Repeat introductory fill ONCE with 2nd time ending!]

   Bb   F     Eb   F     Gm   Dm   Cm    F


Bb                             Dm
And then I'll swing you girl until you fall asleep,
Gm                              Eb           F
And when you wake up you'll be lying next to me. [Ba baa]
Bb                           Dm
We'll go to Hollywood, make you a movie star,
Gm                           Eb            F                         
I want the world to know how beautiful you are.


Eb                F
Captivated by the way you look
Bb          Dm       Gm       Cm    C
Tonight the light is dancing in your eyes..
           Eb         F
Your sweet eyes, Yeaah. 


N.C.                   Bb        F                    Eb          F
Times like these we'll never forget, staying out to watch the sunset,
Gm          Dm              Cm        F
I'm glad I shared this with you.
       Bb         F                      Eb            F
'Cause you set me free, show me how good my life could be.
Gm           Dm       Ebm                Bb
How did you happen to me?    Ye-eah, ooh-oh.


  ------------------------>  
Bb    Dm  Gm   Cm          C     Eb          F             Bb
There are no secrets to be told, nothing you don't already know.
Bb    Dm   Gm  
[Bum, Bum, Bum]
Gm                         C     Eb         F
We got no fears of growing old...We got no worries in the world.

Bb       BbM7         Eb        EbM7       F
Ba ba ba da ba ba da, Ba ba ba da ba ba da baaaa ba da baaaa. 
Bb       BbM7         Eb        EbM7       F
Ba ba ba da ba ba da, Ba ba ba da ba ba da baaaa ba da baaaa. 
Bb       BbM7         Eb        EbM7       F      (Strum chord just once, except F)
Ba ba ba da ba ba da, Ba ba ba da ba ba da baaaa ba da baaaa. 
Bb       BbM7         Eb        EbM7       F                    Bb
Ba ba ba da ba ba da, Ba ba ba da ba ba da baaaa ba da baaaa. 

-------------------------------------
Chords
   BbM7 EbM7
e|-6-   -6-|
B|-6-   -8-|
G|-7-   -6-|
D|-6-   -8-|
A|-8-   -6-|
E|-6-   -6-|

Please rate this tab!
Comments