Mcfly - No Worries Chords & Tabs

 

No Worries Chords & Tabs

Mcfly Chords & Tabs

Version: 1 Type: Bass Tab

No Worries Bass Tab

McFly
No Worries Bass Tab

I love this song and I noticed there was no bass tab for this song anywhere so I decided 
to give it a bash. Enjoy!


Intro 1: (0:00)

G|----------------------------------|
D|----------------------------------|
A|-------8--6--8--10--8--6--8-88----|
E|----6-----------------------------|

G|---------------------------------------------------|
D|---------------------------------------------------|
A|---------8-88-6-66-8-88-10-1010-8-88-6-66--6h8-88--|
E|----6-66-------------------------------------------|


Verse 1: (0:24)

G|----------------------------------------------------|
D|----------------------------------------------------|
A|---------------------------------------\6-6--6h8-8--|
E|----6-6--6-6---10-10--10-10--3-3--3-3---------------|


|-----------------------------------------------------|
D|----------------------------------------------------|
A|---------------------------------------\6-6--6h8-8--|
E|----6-6--6-6---10-10--10-10--3-3--3-3---------------|


Pre Chorus 1: (0:48)

G|--------------------------------------------------------------|
D|--------------------------------------------------------------|
A|--6-6h88----------------------------------------8-8-----------|
E|----------6-5-3-1/-888888888888888h10-66666666----------------|


Chorus 1: (1:00)

G|-----------------------------------------------------|
D|-----------------------------------------------------|
A|---------8-88-6-66-8-88-10-1010-8-88-6-66--6h8-8888--|
E|----6-66---------------------------------------------|

G|---------------------------------------------------|
D|---------------------------------------------------|
A|---------8-88-6-66-8-88-10-1010-8-88-6-66--6h8\----|
E|---6-66--------------------------------------------|


Intro 2: (1:24)

G|---------------------------------------------------|
D|---------------------------------------------------|
A|---------8-88-6-66-8-88-10-1010-8-88-6-66--6h8-88--|
E|----6-66-------------------------------------------|


Verse 2: (1:35)

G|----------------------------------------------------|
D|----------------------------------------------------|
A|------------------/6-6h8-8--------------------------|
E|----6-6/10--10\3------------------------------------|

[ Tab from: http://www.guitartabs.cc/tabs/m/mcfly/no_worries_btab.html ]
G|----------------------------------------------------|
D|----------------------------------------------------|
A|---------------------------------------\6-6--6h8-8--|
E|----6-6--6-6---10-10--10-10--3-3--3-3---------------|


Pre Chorus 2: (1:59)

G|--------------------------------------------------------------|
D|--------------------------------------------------------------|
A|--6-6h88----------------------------------------8-8-----------|
E|----------6-5-3-1/-888888888888888h10-66666666----------------|


Chorus 2: (2:12)

G|---------------------------------------------------|
D|---------------------------------------------------|
A|---------8-88-6-66-8-88-10-1010-8-88-6-66--6h8-88--|
E|----6-66-------------------------------------------|

G|---------------------------------------------------|
D|---------------------------------------------------|
A|---------8-88-6-66-8-88-10-1010-8-88-6-66--6h8-----|
E|---6-66--------------------------------------------|


After Chorus: (2:36)

G|--------------------------------------------------------------|
D|--------------------------------------------------------------|
A|--------------------------------------------------------------|
E|--6-6--6-6---6-5-3-1--/888888888888888------------------------|


G|--------------------------------------------------------------|
D|--------------------------------------------------------------|
A|--------------------------------------------------------------|
E|--1010101010101010-8888--6--6-5-3-3333333-/88888888-10-8------|

Outro: (2:58)

G|------------------------------------------------------------------|
D|------------------------------------------------------------------|
A|-----------666666666666666h88888888-6h88888888--------------------|
E|--66666666----------------- --------------------------------------| x2

(3:17)

G|-----------------------------------------------------------------|
D|-----------------------------------------------------------------|
A|-----------6\-8\--6h88888888--6h88888888-------------------------|
E|--6\-6\---------------- -----------------------------------------|

(3:27)

G|-----------------------------------------------------------------|
D|-----------------------------------------------------------------|
A|-----------6666666666666666h88888888-6h88888888------------------|
E|--66666666----------------- --------------6---6\-----------------|

/ = slide up

\ = slide down

h = hammer on

Thanks and please rate (: