Mcfly - Memory Lane Chords & Tabs

 

Memory Lane Chords & Tabs

Mcfly Chords & Tabs

Version: 1 Type: Bass Tab

Memory Lane Bass Tab

McFly
Memory Lane (Bass)
Tuning: Standard
Transcribed by Soch Hean

Intro:
|-----------------------------------------------------------|
|-----------------------------------------------------------|
|-----------------------------------------------------------|
|-------4-4-4-4-4-4-4-4s=16-16-16-16-16-16-16--16\----------|

Main Bassline:
|----------------|-------------|-------------|--------------|
|----------------|-------------|------3------|-2--6-8-6-----|
|-----3--6-8-6-6-|-------------|----3---3--3-|-----------4--|
|-4--------------|-4--6-8-6--1-|-4-----------|--------------|

|------------|------------|------------|--------------------|
|-3-6-8-6----|------------|------6-----|--------------------|
|------------|-3--6-8-6---|-4--8---8-6-|-6----6-------------|
|----------4-|----------6-|------------|----6---------------|

Verse 1:
|----------------|-------------|-------------|--------------|
|----------------|-------------|------3------|-2--6-8-6-----|
|-----3--6-8-6-6-|-------------|----3---3--3-|-----------4--|
|-4--------------|-4--6-8-6--1-|-4-----------|--------------|

|------------|------------|------------|--------------------|
|-3-6-8-6----|------------|------6-----|--------------------|
|------------|-3--6-8-6---|-4--8---8-6-|-6----6-------------|
|----------4-|----------6-|------------|----6---------------|

|----------------|-------------|-------------|--------------|
|----------------|-------------|------3------|-2--6-8-6-----|
|-----3--6-8-6-6-|-------------|----3---3--3-|-----------4--|
|-4--------------|-4--6-8-6--1-|-4-----------|--------------|

|------------|------------|------------|--------------------|
|-3-6-8-6----|------------|------6-----|--------------------|
|------------|-3--6-8-6---|-4--8---8-6-|-6------------------|
|----------4-|----------6-|------------|----6--4------------|

Chorus:
|---------------------------------------------------------|
|---------------------------------------------------------|
|-4-----------------6-6-----4---4-------------6---6-------|
|------4-4-----1--6------4--------4-4---1---6---6----4----|

|-------------------------------------------------------------|
|-------------------------------------------------------------|
|-4---4-------------1-------4-4-4--6-6-6-6--------------------|
|-------4-4----1-------1-------------------16\----------------|

Verse 2:
|----------------|-------------|-------------|--------------|
|----------------|-------------|------3------|-2--6-8-6-----|
|-----3--6-8-6-6-|-------------|----3---3--3-|-----------4--|
|-4--------------|-4--6-8-6--1-|-4-----------|--------------|

|------------|------------|------------|--------------------|
|-3-6-8-6----|------------|------6-----|--------------------|
|------------|-3--6-8-6---|-4--8---8-6-|-6----6-------------|
|----------4-|----------6-|------------|----6---------------|

|----------------|-------------|-------------|--------------|
|----------------|-------------|------3------|-2--6-8-6-----|
|-----3--6-8-6-6-|-------------|----3---3--3-|-----------4--|
|-4--------------|-4--6-8-6--1-|-4-----------|--------------|
[ Tab from: http://www.guitartabs.cc/tabs/m/mcfly/memory_lane_btab.html ]
|------------|------------|------------|--------------------|
|-3-6-8-6----|------------|------6-----|--------------------|
|------------|-3--6-8-6---|-4--8---8-6-|-6------------------|
|----------4-|----------6-|------------|----6--4------------|

Chorus:
|-----------------------------------------------------------|
|-----------------------------------------------------------|
|-4----4--------------6-6-----4---4-------------6---6-------|
|--------4-4-----1--6------4--------4-4---1---6---6----4----|

|-------------------------------------------------------------|
|-------------------------------------------------------------|
|-4---4-------------1-------4-4-4--6-6-6-6--------------------|
|-------4-4----1-------1--------------------------------------|

Refrain: (So much has changed...)
|-----------------------------------------|
|-----------------------------------------|
|-----------------------------------------|
|-4--4--4--4-4s16-16-16-16-16-16-16-------|

|---------------------------------------------------------------|
|---------------------------------------------------------------|
|-4------4-4----4------4-4--66---------------------1---1-1----7-|
|------4-------------4---------4---4-4--4---4-4-----------------|

Down Memory Lane.... (2:08)
|------------------------------|
|-11---------------------------|
|-------11-11-----8-----6-6----|
|------------------------------| (x2)

|---------------------------------------------|
|-11------------------8---------11-11-11---13-|
|-------11-11-----8-------8-------------------|
|---------------------------------------------|

Refrain: (So much has changed...)(2:28)
|-----------------------------------------|
|-----------------------------------------|
|-----------------------------------------|
|-4--4--4--4-4s16-16-16-16-16-16-16-------|

|------------------------------------------------------------------------|
|-----------------------------------------------4-5-6--------------------|
|-4------4-4-----4-----4h6-4---4-------------6--------------1---1-1----7-|
|------4-------4-----4-----------4---4-4--4-----------4------------------|

(Down Memory Lane...)
|------------------------------------------------------------------------|
|------------------------------------------------------------------------|
|------------------------------------------------------------------------|
|-4--4--4--4--4--4--4--4--4--4--4--4-4s16-16-16-16-16-16-16-16-16--------|

Refrain: (2:59)
|----------------------------------------------------------------|
|----------------------------------------------------------------|
|-4------4-4-----4-----4-4---6----------------------1---1-1--3-4-|
|------4-------4----------------4---4-4--4---4-4-----------------|

|----------------------------------------------------------------|
|----------------------------------------------------------------|
|-4--4-4-4--4---------------------------------------3--3--4-4----|
|---------------4--4--4--4--4--4--4--4--4--4--6--6---------------|

Repeat Refrain:
|---------------------------------------------------|
|---------------------------------------------------|
|-4------4-4-----4-----4-4---6----------------------|
|------4-------4----------------4---4-4--4---4-4----|

Legend:
s - slide