Mcfly - Love Is On The Radio Chords & Tabs

 

Love Is On The Radio Chords & Tabs

Mcfly Chords & Tabs

Version: 1 Type: Tab 0 ratings
1 star 2 stars 3 stars 4 stars 5 stars
comments

Love Is On The Radio Tab

   
-----------------------------------------------------------------------------
              Love Is On The Radio - McFly
-----------------------------------------------------------------------------
Tabbed by: Fabio-BlenderBR
 - Please rate and send me your feedback -

Intro - 

Guitar 1 

    G    Cadd9   G   D/F#  Em   D/F#  G
e|-3-3-3-3-3--3-3-3-3-3--0-0-0-0-3--3-3-3-3------|
B|-3-3-3-3-3--3-3-3-3-3--0-0-0-0-3--3-3-3-3------|
G|-0-0-0-0-0--0-0-0-0-0--0-0-0-0-0--0-0-0-0------|
D|-0-0-0-0-2--0-0-0-0-0--2-2-2-2-0--0-0-0-0------|   2x
A|-2-2-2-2-3--2-2-2-2-0--2-2-2-2-0--2-2-2-2------|
E|-3-3-3-3----3-3-3-3-2--0-0-0-0-2--3-3-3-3------|

Guitar 2

E|-------------------|
B|-3-0-----0---------|
G|-----0h2---2p0-----|
D|---------------2-0-|    8x
A|-------------------|
E|-------------------|

 - Verse 
(I was alone and my stomach was twisted...)

Guitar 1 and 2

  G    Cadd9   G   D/F#  Em   D/F#  G
e|-3-3-3-3-3--3-3-3-3-3--0-0-0-0-3--3-3-3-3------|
B|-3-3-3-3-3--3-3-3-3-3--0-0-0-0-3--3-3-3-3------|
G|-0-0-0-0-0--0-0-0-0-0--0-0-0-0-0--0-0-0-0------|
D|-0-0-0-0-2--0-0-0-0-0--2-2-2-2-0--0-0-0-0------|   
A|-2-2-2-2-3--2-2-2-2-0--2-2-2-2-0--2-2-2-2------|
E|-3-3-3-3----3-3-3-3-2--0-0-0-0-2--3-3-3-3------|

(Back in the old life, before you existed...)

Guitar 1

  G    Cadd9   G   D/F#  Em   D/F#  G
e|-3-3-3-3-3--3-3-3-3-3--0-0-0-0-3--3-3-3-3------|
B|-3-3-3-3-3--3-3-3-3-3--0-0-0-0-3--3-3-3-3------|
G|-0-0-0-0-0--0-0-0-0-0--0-0-0-0-0--0-0-0-0------|
D|-0-0-0-0-2--0-0-0-0-0--2-2-2-2-0--0-0-0-0------|   
A|-2-2-2-2-3--2-2-2-2-0--2-2-2-2-0--2-2-2-2------|
E|-3-3-3-3----3-3-3-3-2--0-0-0-0-2--3-3-3-3------|
                **

Guitar 2

e|-------------------------------|
B|-------------------------------|
G|--13---------------------------|
D|--13p15p13-10--10p12p10-9~-----|  Guitar 2 plays on (**)
A|-------------------------------|
E|-------------------------------|

 - Pre Chorus
(Said one word, made me feel much better...)

Guitar 1 and 2

      Cadd9               D     Dsus4
e|-3-3-3-3-3-3-3-3-2-2-2-2-2-2-2-3-------------|
B|-3-3-3-3-3-3-3-3-3-3-3-3-3-3-3-3-------------|
G|-0-0-0-0-0-0-0-0-2-2-2-2-2-2-2-2-------------|
D|-2-2-2-2-2-2-2-2-0-0-0-0-0-0-0-0-------------|
A|-3-3-3-3-3-3-3-3-----------------------------|
E|---------------------------------------------|

 - Chorus
(Things are looking up, looking up (hey!)...)

Guitar 1 and 2
 
    Cadd9     G       D   Em D/F#  Cadd9   G         D
e|-3-3-3-3-3-3-3-3-2-2-2-2-0--3-3-3-3-3-3-3-3-3-2-2-2-2-2-2-2-2---|
B|-3-3-3-3-3-3-3-3-3-3-3-3-0--3-3-3-3-3-3-3-3-3-3-3-3-3-3-3-3-3---|
G|-0-0-0-0-0-0-0-0-2-2-2-2-0--0-0-0-0-0-0-0-0-0-2-2-2-2-2-2-2-2---|
D|-2-2-2-2-0-0-0-0-0-0-0-0-2--0-2-2-2-2-0-0-0-0-0-0-0-0-0-0-0-0---|
A|-3-3-3-3-2-2-2-2---------2--0-3-3-3-3-2-2-2-2-------------------|
E|---------3-3-3-3---------0--2---------3-3-3-3-------------------|

(So turn it up, turn it up (hey!)...)

    Cadd9     G       B   Em D/F# Cadd9 D
e|-3-3-3-3-3-3-3-3---------0--3-3-3-3-3-2--------|
B|-3-3-3-3-3-3-3-3---------0--3-3-3-3-3-3--------|
G|-0-0-0-0-0-0-0-0-4-4-4-4-0--0-0-0-0-0-2--------|
D|-2-2-2-2-0-0-0-0-4-4-4-4-2--0-2-2-2-2-0--------|
A|-3-3-3-3-2-2-2-2-2-2-2-2-2--0-3-3-3-3----------|
E|---------3-3-3-3---------0--2------------------|

 - Intro

    G   Cadd9   G   Cadd9
e|-3-3-3-3-3--3-3-3-3-3------|
B|-3-3-3-3-3--3-3-3-3-3------|
G|-0-0-0-0-0--0-0-0-0-0------|
D|-0-0-0-0-2--0-0-0-0-2------|   
A|-2-2-2-2-3--2-2-2-2-3------|
E|-3-3-3-3----3-3-3-3--------|

Guitar 2

E|-------------------|
B|-3-0-----0---------|
G|-----0h2---2p0-----|
D|---------------2-0-|    2x
A|-------------------|
E|-------------------|

 - Verse 2
(Now that I've found you, my heart's beating faster...)

Guitar 1

  G    Cadd9   G   D/F#  Em   D/F#  G
e|-3-3-3-3-3--3-3-3-3-3--0-0-0-0-3--3-3-3-3------|
B|-3-3-3-3-3--3-3-3-3-3--0-0-0-0-3--3-3-3-3------|
G|-0-0-0-0-0--0-0-0-0-0--0-0-0-0-0--0-0-0-0------|
D|-0-0-0-0-2--0-0-0-0-0--2-2-2-2-0--0-0-0-0------|   
A|-2-2-2-2-3--2-2-2-2-0--2-2-2-2-0--2-2-2-2------|
E|-3-3-3-3----3-3-3-3-2--0-0-0-0-2--3-3-3-3------|
                                            **

Guitar 2

e|------------------|
B|----------------3-|
G|--0-2p4p2-0-------|
D|------------2-0---|  Guitar 2 plays on (**)
A|------------------|
E|------------------|

(We could be married, like Mrs and Mr...)

Guitar 1
[ Tab from: http://www.guitartabs.cc/tabs/m/mcfly/love_is_on_the_radio_tab.html ]
  G    Cadd9   G   D/F#  Em   D/F#  G
e|-3-3-3-3-3--3-3-3-3-3--0-0-0-0-3--3-3-3-3------|
B|-3-3-3-3-3--3-3-3-3-3--0-0-0-0-3--3-3-3-3------|
G|-0-0-0-0-0--0-0-0-0-0--0-0-0-0-0--0-0-0-0------|
D|-0-0-0-0-2--0-0-0-0-0--2-2-2-2-0--0-0-0-0------|   
A|-2-2-2-2-3--2-2-2-2-0--2-2-2-2-0--2-2-2-2------|
E|-3-3-3-3----3-3-3-3-2--0-0-0-0-2--3-3-3-3------|
                    **

Guitar 2

e|-------------------------------|
B|-------------------------------|
G|--13---------------------------|
D|--13p15p13-10--10p12p10-9~-----|  Guitar 2 plays on (**)
A|-------------------------------|
E|-------------------------------|

 - Pre Chorus
(Just one thing holding us together,...)

Guitar 1 and 2

      Cadd9               D     Dsus4
e|-3-3-3-3-3-3-3-3-2-2-2-2-2-2-2-3-------------|
B|-3-3-3-3-3-3-3-3-3-3-3-3-3-3-3-3-------------|
G|-0-0-0-0-0-0-0-0-2-2-2-2-2-2-2-2-------------|
D|-2-2-2-2-2-2-2-2-0-0-0-0-0-0-0-0-------------|
A|-3-3-3-3-3-3-3-3-----------------------------|
E|---------------------------------------------|

 - Chorus
(Things are looking up, looking up (hey!)...)

Guitar 1 and 2
 
    Cadd9     G       D   Em D/F#  Cadd9   G         D
e|-3-3-3-3-3-3-3-3-2-2-2-2-0--3-3-3-3-3-3-3-3-3-2-2-2-2-2-2-2-2---|
B|-3-3-3-3-3-3-3-3-3-3-3-3-0--3-3-3-3-3-3-3-3-3-3-3-3-3-3-3-3-3---|
G|-0-0-0-0-0-0-0-0-2-2-2-2-0--0-0-0-0-0-0-0-0-0-2-2-2-2-2-2-2-2---|
D|-2-2-2-2-0-0-0-0-0-0-0-0-2--0-2-2-2-2-0-0-0-0-0-0-0-0-0-0-0-0---|
A|-3-3-3-3-2-2-2-2---------2--0-3-3-3-3-2-2-2-2-------------------|
E|---------3-3-3-3---------0--2---------3-3-3-3-------------------|

(So turn it up, turn it up (hey!)...)

    Cadd9     G       B   Em D/F# Cadd9 D
e|-3-3-3-3-3-3-3-3---------0--3-3-3-3-3-2--------|
B|-3-3-3-3-3-3-3-3---------0--3-3-3-3-3-3--------|
G|-0-0-0-0-0-0-0-0-4-4-4-4-0--0-0-0-0-0-2--------|
D|-2-2-2-2-0-0-0-0-4-4-4-4-2--0-2-2-2-2-0--------|
A|-3-3-3-3-2-2-2-2-2-2-2-2-2--0-3-3-3-3----------|
E|---------3-3-3-3---------0--2------------------|

 - Post Chorus

E|-------------------|
B|-3-0-----0---------|
G|-----0h2---2p0-----|
D|---------------2-0-|    2x
A|-------------------|
E|-------------------|

 - Bridge
(Love is on the radio, Love is on the radio (turn it up, turn it up)...)

Guitar 1 

        G       D/F# Em  D/F#
e|-3-3-3-3-3-3-3-3--0-0-0-3--| 
B|-3-3-3-3-3-3-3-3--0-0-0-3--| 
G|-0-0-0-0-0-0-0-0--0-0-0-0--|  
D|-0-0-0-0-0-0-0-0--2-2-2-0--|  
A|-2-2-2-2-2-2-2-0--2-2-2-0--|  
E|-3-3-3-3-3-3-3-2--0-0-0-2--| 

            G         D/F#  Em D/F#   G
e|-3-3-3-3-3-3-3-3-3-3-3--0-0-0-3--3-3-3-3--| 
B|-3-3-3-3-3-3-3-3-3-3-3--0-0-0-3--3-3-3-3--| 
G|-0-0-0-0-0-0-0-0-0-0-0--0-0-0-0--0-0-0-0--|  
D|-0-0-0-0-0-0-0-0-0-0-0--2-2-2-0--0-0-0-0--|  
A|-2-2-2-2-2-2-2-2-2-2-0--2-2-2-0--2-2-2-2--|  
E|-3-3-3-3-3-3-3-3-3-3-2--0-0-0-2--3-3-3-3--| 

- Pre Chorus
(Funny one thing led to another...)

Guitar 1 and 2

      Cadd9               D     Dsus4   Cadd9        D
e|-3-3-3-3-3-3-3-3-2-2-2-2-2-2-2-3-3-3-3-3-3-3-3-3-2-2-2--|
B|-3-3-3-3-3-3-3-3-3-3-3-3-3-3-3-3-3-3-3-3-3-3-3-3-3-3-3--|
G|-0-0-0-0-0-0-0-0-2-2-2-2-2-2-2-2-0-0-0-0-0-0-0-0-2-2-2--|
D|-2-2-2-2-2-2-2-2-0-0-0-0-0-0-0-0-2-2-2-2-2-2-2-2-0-0-0--|
A|-3-3-3-3-3-3-3-3-----------------3-3-3-3-3-3-3-3--------|
E|--------------------------------------------------------|

 - Chorus
(Things are looking up, looking up (hey!)...)

Guitar 1 and 2
 
    Cadd9     G       D   Em D/F#  Cadd9   G         D
e|-3-3-3-3-3-3-3-3-2-2-2-2-0--3-3-3-3-3-3-3-3-3-2-2-2-2-2-2-2-2---|
B|-3-3-3-3-3-3-3-3-3-3-3-3-0--3-3-3-3-3-3-3-3-3-3-3-3-3-3-3-3-3---|
G|-0-0-0-0-0-0-0-0-2-2-2-2-0--0-0-0-0-0-0-0-0-0-2-2-2-2-2-2-2-2---|
D|-2-2-2-2-0-0-0-0-0-0-0-0-2--0-2-2-2-2-0-0-0-0-0-0-0-0-0-0-0-0---|
A|-3-3-3-3-2-2-2-2---------2--0-3-3-3-3-2-2-2-2-------------------|
E|---------3-3-3-3---------0--2---------3-3-3-3-------------------|

(So turn it up, turn it up (hey!)...)

    Cadd9     G       B   Em D/F#      Cadd9          G             Cadd9       D
e|-3-3-3-3-3-3-3-3---------0--3-3-3-3-3-3-3-3-3-3-3-3-3-3-3-3-3-3-3-3-3-3-3-3-3-2--|
B|-3-3-3-3-3-3-3-3---------0--3-3-3-3-3-3-3-3-3-3-3-3-3-3-3-3-3-3-3-3-3-3-3-3-3-3--|
G|-0-0-0-0-0-0-0-0-4-4-4-4-0--0-0-0-0-0-0-0-0-0-0-0-0-0-0-0-0-0-0-0-0-0-0-0-0-0-2--|
D|-2-2-2-2-0-0-0-0-4-4-4-4-2--0-2-2-2-2-2-2-2-2-0-0-0-0-0-0-0-0-2-2-2-2-2-2-2-2-0--|
A|-3-3-3-3-2-2-2-2-2-2-2-2-2--0-3-3-3-3-3-3-3-3-2-2-2-2-2-2-2-2-3-3-3-3-3-3-3-3----|
E|---------3-3-3-3---------0--2-----------------3-3-3-3-3-3-3-3--------------------|

 - Intro

Guitar 1 

    G    Cadd9   G   D/F#  Em   D/F#  G
e|-3-3-3-3-3--3-3-3-3-3--0-0-0-0-3--3-3-3-3------|
B|-3-3-3-3-3--3-3-3-3-3--0-0-0-0-3--3-3-3-3------|
G|-0-0-0-0-0--0-0-0-0-0--0-0-0-0-0--0-0-0-0------|
D|-0-0-0-0-2--0-0-0-0-0--2-2-2-2-0--0-0-0-0------|   2x
A|-2-2-2-2-3--2-2-2-2-0--2-2-2-2-0--2-2-2-2------|
E|-3-3-3-3----3-3-3-3-2--0-0-0-0-2--3-3-3-3------|

Guitar 2

E|-------------------|
B|-3-0-----0---------|
G|-----0h2---2p0-----|
D|---------------2-0-|    8x
A|-------------------|
E|-------------------|

End on "G" chord.


- Tabbed by Fabio BlenderBR
- Don't forget to rate ;)
Comments