Mcfly - Ive Got You Chords & Tabs

 

Ive Got You Chords & Tabs

Mcfly Chords & Tabs

Version: 2 Type: Tab

Ive Got You Tab

   
McFly
I've Got You
Tuning: (EADGBE) Standard
Transcribed by Soch H.
You can compare this tab with my other
version of the same tab to see which sound better. Enjoy.

Intro:(Main Riff)
  E   B      G#m   A
|-----7-7-7--4-4--5-5---------|
|-----7-7-7--4-4--5-5---------|
|-9---8-8-8--4-4--6-6---------|
|-9---9-9-9--6-6--7-7---------|
|-7---------------------------|
|-----------------------------| (x3)

|-------------------------|
|-------------------------|
|-9-9---------------------|
|-9-9---------------------|
|-7-7------x\-------------|
|----------x\--pick-scrape|

|-----7-7-7--4-4--5-5---------|
|-----7-7-7--4-4--5-5---------|
|-9---8-8-8--4-4--6-6---------|
|-9---9-9-9--6-6--7-7---------|
|-7---------------------------|
|-----------------------------| (x4)

Verse:
A                             E
The world would be a lonely place

|-------------------------------|
|-7h9--9--9--7--7--7--5--5--5---|
|-8h9--9--9--8--8--8--6--6--6---|
|-------------------------------|
|-------------------------------|
|-------------------------------|
A
Without the one who puts

		|-------------------|
		|-------7--x-x------|
		|--6s=8----x-x------|
		|-------------------|
		|-------------------|
		|-------------------|
   C#m
A smile on your face

|-------------------------------------|
|-7h9--9---7h9--9--7--5---------------|
|-8h9--9---8h9--9--8--6---------------|
|-------------------------------------|
|-------------------------------------|
|-------------------------------------|

A                             C#m
So hold me till the sun runs out

|--------------------------------------------|
|----4-------7s=5-------7s=5--------4s=2--2--|
|--4-4--6s=8-------6s=8--------6s=4-------2--|
|--------------------------------------------|
|--------------------------------------------|
|--------------------------------------------|

A            F#m             B
I won't be lonely when I'm down

|---------------------------------------|
|------4------5--5s=7--9-9-9-9-9-9--7---|
|-2s=4---4s=6----6s=8--9-9-9-9-9-9--8---|
|---------------------------------------|
|---------------------------------------|
|---------------------------------------|

Chorus: (Play main riff here)
               E  B  G#m  
Cause I've got you
A               E  B  G#m  A
To make me feel stronger
          E         B
When the days are rough
       G#m    A        E  B  G#m  A
And an hour seems much longer

Verse 2:
A                       E
I never doubted you at all

|-------------------------------|
|-7h9--9--9--7--7-10--9--7--5---|
|-8h9--9--9--8--8--9--9--8--6---|
|-------------------------------|
|-------------------------------|
|-------------------------------|
A
If stars collide

		|-------------------|
		|-------7--x-x------|
		|--6s=8----x-x------|
		|-------------------|
		|-------------------|
		|-------------------|
              C#m
Will you stand by and watch them fall?

|-------------------------------------|
|-7h9--9---7h9--9--7--5---------------|
|-8h9--9---8h9--9--8--6---------------|
|-------------------------------------|
|-------------------------------------|
|-------------------------------------|
A                           C#m
So hold me till the sky is clear
|--------------------------------------------|
|----4-------7s=5-------7s=5--------4s=2--2--|
|--4-4--6s=8-------6s=8--------6s=4-------2--|
|--------------------------------------------|
|--------------------------------------------|
|--------------------------------------------|

A            F#m
And whisper words of love
|---------------------------------------|
|------4------5--5s=7--9-9-9-9-9-9--7---|
|-2s=4---4s=6----6s=8--9-9-9-9-9-9--8---|
|---------------------------------------|
|---------------------------------------|
|---------------------------------------|
B
Right into my ear

[ Tab from: http://www.guitartabs.cc/tabs/m/mcfly/ive_got_you_tab_ver_2.html ]
Chorus: (Play main riff here)
               E  B  G#m  
Cause I've got you
A               E  B  G#m  A
To make me feel stronger
          E         B
When the days are rough
       G#m    A        E  B  G#m  A
And an hour seems much longer
                    E  B  G#m
Yeah, when I've got you
           A           E  B  G#m  A
Oh, it'll make me feel better
         E           B
When the nights are long
          G#m  A  E  B  G#m  A
They'll be easier together

Bridge:
Bm                E
Looking in your eyes

|----------------------|
|-15---14~-15----------|
|-------------13-------|
|-----------------14---|
|----------------------|
|----------------------|
Bm                 G
Hoping they won't cry

|--------------------|
|-12-15--14--12------|
|----------------12--|
|--------------------|
|--------------------|
|--------------------|
Em            A
Even if they do
F#m                 G    A   D
I'll be in bed so close to you
                          G
To hold you through the night
Em            A
You'll be unaware
    F#m
But if you need me
G    A    
I'll be there
|---------------------------------------|
|---------------------------------------|
|-4-4-4-4--4s6-6-6--6s8--8-8--x-x-x-----|
|-x-x-x-x--x-x-x-x--x-x--x-x--x-x-x-----|
|-2-2-2-2--2s4-4-4--4s6--6-6--x-x-x-----|
|---------------------------------------|

|-----7-7-7--4-4--5-5---------|
|-----7-7-7--4-4--5-5---------|
|-9---8-8-8--4-4--6-6---------|
|-9---9-9-9--6-6--7-7---------|
|-7---------------------------|
|-----------------------------| (x3)

|--------------------|
|--------------------|
|-9------------------|
|-9------------------|
|-7--------x\--------|
|----------x\--------|
      (Pick Scrape)

Chorus: (Play main riff here)
               E  B  G#m  
Yeah, I've got you
A               E  B  G#m  A
Oh, to make me feel stronger
          E         B
When the days are rough
       G#m    A        E  B 
And an hour seems much longer
G#m                 E  B  G#m
Yeah, when I've got you
       A           E  B  G#m  A
It'll make me feel better
         E           B
When the nights are long
          G#m  A  E  B  G#m  A
They'll be easier together

(2:53) (Play on 'Yeah, I've got you..)
|-x-x-x-x---|
|-x-x-x-x---|
|-x-x-x-x---|
|-x-x-x-x---|
|-x-x-x-x---|
|-x-x-x-x---|

|-12-12-12-11-11-11-14-14-14-11-11-11-12-12-11-11--|
|-12-12-12-12-12-12-12-12-12-12-12-12-12-12-12-12--|
|--------------------------------------------------|
|--------------------------------------------------|
|--------------------------------------------------|
|--------------------------------------------------| (x4)

Ending:
Yeah, when I've got you
|-----7---4---5--------------------|
|-----7---4---5--------------------|
|-9---8---4---6--------------------|
|-9---9---6---7--------------------|
|-7--------------------------------|
|----------------------------------|

Chords:
E:    022100  or  x799xx
A:    x02220  or  577655
D:    xx0232
Bm:   x24432
B:    x2444x  or  799877
Em:   022000
C#m:  x46654
F#m:  244222
G:    320033

An alternative way to play the main riff: (It's pretty much the same thing)
  E   B       G#m    A
|-0-----------4-4---5-5-------------|
|-0-----------4-4---5-5-------------|
|-1---4-4-4---4-4---6-6-------------|
|-2---4-4-4---6-6---7-7-------------|
|-2---2-2-2---6-6---7-7-------------|
|-0-----------4-4---5-5-------------|