Mcfly - I'll Be Ok Chords & Tabs

 

I'll Be Ok Chords & Tabs

Mcfly Chords & Tabs

Version: 2 Type: Tab 0 ratings
1 star 2 stars 3 stars 4 stars 5 stars
comments

I'll Be Ok Tab

   
McFly - I'll Be OK (No.1, first single from 'Wonderland').

Tabbed by Fiona McAuley, Belfast. (fiona1099@hotmail.com)

INTRO

e-15-14---------------------------------|
B------15--------15----15----15----15---|
G--------14--------14----14----14----14-|
D----------17-16-----17----17----17-----|  x 4  :>
A---------------------------------------|
E---------------------------------------|

  D
e-2-0-2-0-2p0-|
B-3-3-3-3-3---|
G-2-2-2-2-2---|
D-------------|  x 2
A-------------|
E-------------|

D                                  Bm
When everything is going wrong and things are just a little strange
           A                    G                D
It's been so long now you've forgotten how to smile
D                                   Bm
Overhead the skies are clear but it still seems to rain on you
          A                    G                   D
And your only friends all have better things to do.

           G         A            F#             Bm
When your down, and lost, and you need a helping hand!
Bm   A      G         A              D
When you're down, and lost along the way.
(play this on 'way')
e------14----14----14-----14-----14-----|
B--------15----15----15-----15-----15---|
G-14h16----14----14----14-----14-----14-|
D---------------------------------------|
A---------------------------------------|
E---------------------------------------|
                       C      G
Oh just tell yourself, aaaahhhh,
        D
I'll be ok.


D                                         Bm
Now things are only getting worse and you need someone to take the blame
           A                      G                   D
When your lover's gone there's no one to share the pain.

(this is played during these first two lines)
e--------------------------      ----------------(5)--|
B--------------------------      -----------------7---|
G-7---6-6-6--9-9--6-6h7p6--      ---9--7---9--7---7---|
D-7---7-7-7--7-7--7-7---7--  x3  -7------7--------7---|
A--------------------------      ----------------(5)--|
E--------------------------      ----------------(5)--|

D                                           Bm
You're sleeping with the T.V. on and you're lying in an empty bed
         A              G                D
All the alcohol in the world would never help me to forget.


Bm   A       G         A            F#             Bm
When you're down, and lost, and you need a helping hand
Bm   A      G         A              D    D7
When you're down, and lost along the way.

(play this on 'way)
e------14----14-----------14----14-----|
B--------15----15-----------14----14---|
G-14h16----14----14--14h16----14----14-|
D--------------------------------------|
A--------------------------------------|
E--------------------------------------|
             G
Try a little harder

e------15----15-----|
B--------15----15---|
G-14h16----14----14-|
D-------------------|
A-------------------|
E-------------------|
[ Tab from: http://www.guitartabs.cc/tabs/m/mcfly/ill_be_ok_tab_ver_2.html ]
F#               Bm      A           e
Try your best to make it through the day..

e------16----16----17----------16------|
B--------17----17-----17---------17----|
G-16h18----16----16---------16-----16--|
D--------------------------------------|
A--------------------------------------|
E--------------------------------------|
                       C      G
Oh just tell yourself, aaahhhhh
        D
I'll be ok.

Bb         C
You're not alone (You're not alone)
Bb         C
You're not alone (You're not alone)
Bb         C
You're not alone (You're not alone)
  D
e-2-0-2-0-2p0-|
B-3-3-3-3-3---|
G-2-2-2-2-2---|
D-------------|  x 2
A-------------|
E-------------|

                    C    G          D
Just tell yourself, aaahhhh I'll be ok
                      C     G          D
Oh just tell yourself, aaahhhh I'll be ok
                         C    G    Bb     A
Won't you tell yourself, aaaaaaaaaahhhhhhhhhhh

Bm   A       G         A            F#             Bm
When you're down, and lost, and you need a helping hand
Bm   A      G         A              D    D7
When you're down, and lost along the way.

(play this on 'way)
e------14----14-----------14----14-----|
B--------15----15-----------14----14---|
G-14h16----14----14--14h16----14----14-|
D--------------------------------------|
A--------------------------------------|
E--------------------------------------|
             G
Try a little harder

e------15----15-----|
B--------15----15---|
G-14h16----14----14-|
D-------------------|
A-------------------|
E-------------------|

F#               Bm      A           e
Try your best to make it through the day..

e------16----16----17----------16------|
B--------17----17-----17---------17----|
G-16h18----16----16---------16-----16--|
D--------------------------------------|
A--------------------------------------|
E--------------------------------------|

Oh just tell yourself,
C      G          D
aaahhhhh I'll be ok.

e-----------------------------------------|
B-----------------------------------------|
G-----------------------------------------|
D------5h7-------------------7-7-9-7------|
A---5h7-------------------7h9--------7----|
E-8-------6--6-6--8h10-8---------------10-|

C      G          D
aaahhhhh I'll be ok.

e----------------------------------------------|
B----------------------------------------------|
G--------------------------------7-9--9b11r9-7-|
D------5h7-------------------7--9--------------|
A---5h7-------------------7h9------------------|
E-8-------6--6-6--8h10-8-----------------------|

C      G          D
aaahhhhh I'll be ok.

(play this on 'aaahhhh')

e----------------|
B----------------|
G--9---9b11r--7--|
D----------------|
A----------------|
E----------------|

e-s/12-15-14------------|
B-----------15-------15-|
G-------------14--------|
D---------------17-16---|
A-----------------------|
E-----------------------|

:>
Comments