Mcfly - Five Colours In Her Hair Chords & Tabs

 

Five Colours In Her Hair Chords & Tabs

Mcfly Chords & Tabs

Version: 1 Type: Tab 1 rating
1 star 2 stars 3 stars 4 stars 5 stars
comments

Five Colours In Her Hair Tab

   
5 Colours In Her Hair Tab by Mcfly

Hey this tab is correct or very near to it - I'm sure of it! The song is very Beatle-esque
and I really like it.  This tab is quite long - cause it covers most of the guitar parts. 
This tab took me ages to get to how it is now; I'm a perfectionist lol. Anyway, please bear 
with it, cause it will be worth the effort once you've learned it all.  Enjoy.


Useful Chord List:

    Rhythm     Lead 
    Guitar    Guitar*

Am- 01220x
B - 24442x /  778997 
C - 01023x /  9.9.10.11.11.9 
Cm- 34553x
D - 2320xx /  10.10.11.12.12x
E - 001220
Em- 000220 /  78997x
F - 112331
Fm- 111331
G - 330023 /  7879(10)x


*high chords used in solo - probably just on the highest 3 strings eBG




RIFF/SOLO:  (this is guitar 2 part during INTRO, and has delay on it)


e|-----------------------------------------------------------------------------   -2-
B|-----------------------------------------------------------------------------   -3-
G|-----------------------------------------------------------------------------   -2-
D|---------------------3-4-5-5-3-5-3-------------3-4-5-5-3-5-3-----------------   -0- x 16
A|---------1-2-3-1-3-5---------------5-4-3-1-3-5---------------5-4-3-1-3-1-3-4-   -x-
E|-3-1-3-3---------------------------------------------------------------------   -x-

it is useful to learn this riff first and then learn the rest of the song


Throughout most of the song, both guitars are clean - no distortion




-------------------------------------------

TAB- McFly 5 colours in her hair


INTRO:
-----



Guitar 1:                    by playing this last chord with an extra note, you are
                            /     effectively playing the tune to the intro as well
   G7             C        /        
e|--1---1---1-1---0---0---3---        -2-
B|--0---0---0-0---1---1---1---       -3-
G|--0---0---0-0---0---0---0---       -2-
D|--0---0---0-0---2---2---2---   /x3  -0- x16
A|--2---2---2-2---3---3---3---  /     -x-
E|--3---3---3-3---x---x---x---        -x-

   doo doo do do  doooo doooo



Guitar 2: plays RIFF (see above)


-----

VERSE 1:


G                          F                    G
She's got a lip ring and 5 colours   in   her   hair...

G                          F                    D
Not into fashion  but  I   love the clothes she wears,

G                          F                    G
Her tattoo's always hidden by      her    under-wear.
             C       D

She  don't  ca   -   re.


-----

CHORUS:
Both guitars play chords, though I think one uses open chords and one 
uses bar chords (the ones higher up the fretboard)


G                Em                C                D
Everybody        wants to know her na       -      me,

G                Em                C                D          
I threw a house  party  and   she  ca       -      me,

C                D                 B                Em
Everyone  asked  me                Who the hell is  she? That

C                D                 G
weirdo  with  5  colours  in  her  hair. 


-----

BRIDGE: (Guitar 2 plays with distortion)

  
e|-----------------------------------
G|-----------------------------------
B|-----------------------------------
D|--5---3-5--5-5-5-5---3-5--5-5-5-5--
A|--5---3-5--5-5-5-5---3-5--5-5-5-5--
E|--3---1-3--3-3-3-3---1-3--3-3-3-5--


-----

VERSE 2:     
                  ____________________________________________________at this point
                 /                                                    Guitar 2 plays:  
G               /                F                   G                  
She's  just  a  loner  with  a   sexy     atti   -   tude,           e|------------------
                                                                     B|--15-15-13--------
(G)                              F                   D               G|-----------15-12--
I'd like to phone her cause she  puts  me  in  the   mood,           D|------------------
                                                                     A|------------------
G                                F                   G               E|------------------
The rumours spreading round that she cooks  in  the  nude               WITH DISTORTION

                C                 D
But she  don't  care,  she  don't ca         -       re


------

CHORUS 2


G                 Em                 C                D
Everybody         wants to know her  na       -      me,
 
G                 Em                 C                D          
How does she cope with her new found fa       -      me,

C                 D                  B                Em
Everyone  asked   me                 Who the hell is  she? That

C                 D                  G
weirdo  with  5   colours  in   her  hair. 


-----

INTERLUDE 1:


Guitar 1:
[ Tab from: http://www.guitartabs.cc/tabs/m/mcfly/five_colours_in_her_hair_tab.html ]
    G      G/F#       E               Am     (G)      F               Fm
e|------3-------3-----0---------------0-------3-------1---------------1---------
B|----3---3---3---3---0---------------1-------3-------1---------------1---------
G|--------------------1---------------2-------0-------2---------------1---------
D|--------------------2---------------2-------0-------3---------------3---------
A|--------------------2---------------0-------2-------3---------------3---------
E|--3-------2---------0---------------x-------3-------1---------------1---------
Lyrics key:                   i       ii     iii      iv              v  


Guitar 2:  listen carefully you'll hear this part

                      E               Am     (G)      F               Fm
e|--------------------------------------------------------------------1---------
B|--------------------------------------------------------------------1---------
G|----------------------------4-----4-------------7-------------------1---------
D|------------------------4-6-----6---7-----7-5-----5-3---7-5-3---7-5-3---------
A|--------------------7-------------------7---------------------------3---------
E|--------------------------------------------------------------------1---------
Lyrics key:                   i       ii     iii      iv              v                              

        
i             ii                iii              iv                v
|             |                  |               |                 | 
She was all I thought about, the girl I couldn't live without. But then she went in...




INTERLUDE 2 (continued):


Guitar 1: can strum chords as normal or sweep through the strings slowly (sounds better)

     G       Em      C       D       G       Em      C       D
e|---3-------3-------3-------2-------3-------3-------3-------2----
B|---3-------0-------1-------3-------3-------0-------1-------3----
G|---0-------0-------0-------2-------0-------0-------0-------2----
D|---0-------2-------2-------0-------0-------2-------2-------0----
A|---2-------2-------3-------x-------2-------2-------3-------x----
E|---3-------0-------x-------x-------3-------0-------x-------x----
Key  i       ii     iii                      iv      v 

     C       D       B       Em  D   Cadd9           Cm
  ---0-------2-------2-------3---2---0---------------3------------
  ---1-------3-------4-------0---3---3---------------4------------
  ---0-------2-------4-------0---2---0---------------5------------
  ---2-------0-------4-------2---0---2---------------5------------
  ---3-------x-------2-------2---x---3---------------3------------
  ---x-------x-------x-------0---x---x---------------x------------
Key  vi     vii     viii    ix   x   xi             xii




Guitar 2: / = slide

     G       Em      C       D       G       Em      C       D
e|---------------------2-3-5---3---2-2/3---------------2-3-5---3--
B|-1-3---------------3-------------------------------3------------
G|----------------------------------------------------------------
D|----------------------------------------------------------------
A|----------------------------------------------------------------
E|----------------------------------------------------------------
Key  i       ii     iii                      iv      v 

     C       D       B       Em  D   Cadd9           Cm
  -2-0-------------------0-2-3---2---0---------------3------------
  -----------3-------4-------------------------------4------------
  ---------------------------------------------------5------------
  ---------------------------------------------------5------------
  ---------------------------------------------------3------------
  ---------------------------------------------------x------------
Key  vi     vii     viii    ix   x   xi             xii




   i          ii               iii        iv            v       vi        vii 
   |          |                 |         |             |       |          |
...sane.  She couldn't take the fame, she said I was to blame.  She'd had enough

   viii                 ix  x   xi                xii           
    |                   |   |   |                 |                   
and shaved five colours off and now, she's just a weirdo with no name.




------
 SOLO   same as INTRO, except no singing, and no Guitar 1 
------


------
CHORUS  same as CHORUS 2, except Guitar 2 plays a high bit:
------
  
        
       C               D              B             Em           C             D           G    
      
|  E|-15-      |  E|-17-      |  E|-14-       |    E|-15-              |  E|-17-      | E|-15-
|  B|-17- x 8  |  B|-15- x 8  |  B|-15- x 8   |    B|-17-  x  16       |  B|-15- x 8  | B|-15- x1
|              |              |               |                        |              |  
|Everyone asked| me           |Who the hell is| she? That weirdo with 5|colours in her| hair



-----



OUTRO: same as INTRO but 

                 D             Em11
        replace -2-     with  -0- 
                -3-           -0-
                -2-           -0-
                -0- x16       -0-  x1 (let it ring)
                -x-           -x-
                -x-           -x-
     

-----


ORDER:

INTROx2
VERSE 1
CHORUS 1
VERSE 2
CHORUS 2
INTERLUDE 1 & 2
SOLO
CHORUS 2 v2
OUTRO

 
Comments