Mcfly - Five Colours In Her Hair Chords & Tabs

 

Mcfly Chords & Tabs

Version: 1 Type: Chords 1 rating
1 star 2 stars 3 stars 4 stars 5 stars
comments

Five Colours In Her Hair Chords

5 Colours In Her Hair Tab by Mcfly 
Tabbed By Chiff (chaos_chiff@hotmail.com)

E----------------------------------------------------------------------------------
B----------------------------------------------------------------------------------
G----------------------------------------------------------------------------------
D------------------------------------------0--5--5--3--5--3--0----------------
A--------------------1--3--1--3--1--3------------------------------------------
E--3--1--3--1--3----------------------------------------------------------------

E-------------------------------------------------------------------------------------
B-------------------------------------------------------------------------------------
G-------------------------------------------------------------------------------------
D------------------------0--5--5--3--5--3--0-----------------------0-0-0-0-0-
A 4--3--1--3--1--3---------------------------4--3--1--3--1--3----------------
E-------------------------------------------------------------------------------------

Play that once on its own then play it with the do do do's

E-------------------------------------------------------------------------------------
B-------------------------------------------------------------------------------------
G------------------------------------------------------------------------------------
D---5-------------------------------------3-------3------5-----5------------------
A---5-------------------------------------3-------3------5-----5------------------
E---3-------------------------------------1-------1------3-----3------------------
V 1: She’s got a lip ring with 5       colours in her hair
V 2:    She’s just a loner with a         sexy atti......tudE    

E-------------------------------------------------------------------------------------
B-------------------------------------------------------------------------------------
G------------------------------------------------------------------------------------
D---5-------------------------------------3-------3------5-----5------------------
A---5-------------------------------------3-------3------5-----5------------------
E---3-------------------------------------1-------1------3-----3------------------
V 1:  Not into fashion but I          love the clothes she wears            
V 2: I'd like to phone her cause she   puts me in the       mood


E-------------------------------------------------------------------------------------
B-------------------------------------------------------------------------------------
G-------------------------------------------------------------------------------------
D--5----- 5---- 5------5----------3------ 3--------5------ 5--------------------
A--5------5---- 5------5----------3------ 3--------5------ 5--------------------
E--3------3---- 3------3----------1------ 1--------3------ 3--------------------
V1: Her tattoos always hidden       by her under     wear  but you 
2: The rumours spreading round that she cooks in the nude  but you 


E----------------------------------------------------------------------------------
B----------------------------------------------------------------------------------
G----------------------------------------------------------------------------------
D------ 5--------------- 7------------------------------------------------------- 
A------ 5--------------- 7-------------------------------------------------------
E------ 3--------------- 5------------------------------------------------------
V1: don't care
V2: don't care, you don't care


Chorus:

E----------------------------------------------------------------------------------
B----------------------------------------------------------------------------------
G------------ 4-------4------- 5----5--- 7---- 7-------------------------------
D--5----5-----4-------4------- 5----5--- 7---- 7------------------------------
A--5----5-----2-------2------- 3----3--- 5---- 5-------------------------------
E--3----3-------------------------------------------------------------------------
C1: Everybody wants to know her nae  ae   ae   ame
C2: Everybody wants to know her nae  ae   ae   ame


E----------------------------------------------------------------------------------
B----------------------------------------------------------------------------------
G-------------------4-------4---------------------------5----5--- 7---- 7-------
D--5----5--------- 4-------4---------------------------5----5--- 7---- 7------
A--5----5--------- 2-------2---------------------------3----3--- 5---- 5------
E--3----3------------------------------------------------------------------------
C1: I had a house    party and she                      cae  ae    ae   ame
2: How does she cope with her new found          fae  ae    ae   ame

E----------------------------------------------------------------------------------
B----------------------------------------------------------------------------------
G--5--- 5-------- 7----7------4----- 4------------9------- 9------------------
D--5--- 5-------- 7----7------4----- 4------------9------- 9------------------
A--3--- 3-------- 5----5------2----- 2------------7------- 7------------------
E---------------------------------------------------------------------------------
C1: Everyone asked me         who the hell is     she,             that
C2:  Everyone asked me        who the hell is     she,             that

E---------------------------------------------------------------------------------
B---------------------------------------------------------------------------------
G-------------------------------5----- 5------ 7----------------------------------
D-------------------------------5----- 5------ 7----------------5--3--5---5--3--5-
A-------------------------------3----- 3------ 5----------------5--3--5---5--3--5--
E-----------------------------------------------------------------3-1--3---3--1--3-----
C1: weirdo with 5 colours in her hair

(GO back 2 the start, skipping the intro for the next verse, that's V 2: )
The End few chords of this line are different for verse 2, so from 'who the hell is she,
that...' Etc, it goes :

E---------------------------------------------------------------------------------------
B------------------------------------------------------------------------------------
G-------------------------------5----- 5------ 7----------------------------------- 
D-------------------------------5----- 5------ 7-----------------5-5-5-5-5-5-5-5-4-4-4-4-4-4-4-4---2--
A-------------------------------3----- 3------ 5-----------------5-5-5-5-5-5-5-5-4-4-4-4-4-4-4-4---2--
E-----------------------------------------------------------------3-3-3-3-3-3-3-3-2-2-2-2-2-2-2-2---0----
C2: weirdo with 5 colours in her hair (p.m. the 1st 12 chords, but let last one ring out)

[ Tab from: http://www.guitartabs.cc/tabs/m/mcfly/five_colours_in_her_hair_crd.html ]
Bridge:
E---------------------------------------------------------------------------------------
B---------------------------------------------------------------------------------------
G--------------------------------------------------------------------------------------
D-------------------------------2-------------7-------------------------------------5-
A-------------------------------2-------------7-------------------------------------5--
E-------------------------------0-------------5-------------------------------------3-
    She was all I thought about    The girl I couldn't live without

E--------------------------------------------------------------------------------------------------------
B-----------------------------------------------------8-----------------8--------- 7-8-10-8-7-7h8-
G---------------------------------------------------------------------------------------------------------
D------------------------------- 3------------------------------------------------------------------------
A------------------------------- 3-------------------------------------------------------------------------
E------------------------------- 1------------------------------------------------------------------------
 But then she went insane    She couldn't take the fame

E----------------------------------------------------------------------------------------
B---------------------------------------------------7-8-10-8-7-5-------------7------- 4------ 5-7----------------------------------
G----------------------------------------------------------------------------------------
D----------------------------------------------------------------------------------------
A----------------------------------------------------------------------------------------
E----------------------------------------------------------------------------------------
 She said I was to blame          She had had enough, and shaved 5 colours   
  
E----------------------------------------------------------------------------------------
B----------------------------- 8--- 7-- 5----------------------------------------------
G-------------------------------------------------------------------5------------------
D-------------------------------------------------------------------5-------------------
A-------------------------------------------------------------------3------------------
E----------------------------------------------------------------------------------------
   off and now            She’s just a weirdo with no name


Solo type bit:
E----------------------------------------------------------------------------------
B----------------------------------------------------------------------------------
G----------------------------------------------------------------------------------
D------------------------------------------0--5--5--3--5--3--0----------------
A--------------------1--3--1--3--1--3------------------------------------------
E--3--1--3--1--3----------------------------------------------------------------

E-------------------------------------------------------------------------------------
B-------------------------------------------------------------------------------------
G-------------------------------------------------------------------------------------
D------------------------0--5--5--3--5--3--0-----------------------0-0-0-0-0-
A 4--3--1--3--1--3---------------------------4--3--1--3--1--3----------------
E-------------------------------------------------------------------------------------


Chorus:
E----------------------------------------------------------------------------------
B----------------------------------------------------------------------------------
G----------------------------------------- 4--------------- 5----5--- 7---- 7---
D-------------------------------5----------4--------------- 5----5--- 7---- 7--
A-------------------------------5----------2--------------- 3----3--- 5---- 5--
E-------------------------------3-------------------------------------------------
    Everybody wants to know her nae  ae   ae   ame
   


E----------------------------------------------------------------------------------
B----------------------------------------------------------------------------------
G------------------------------------------------4-------4---------------------------5----5--- 7---- 7---
D-------------------------------5----5--------- 4-------4---------------------------5----5--- 7---- 7-
A-------------------------------5----5--------- 2-------2---------------------------3----3--- 5---- 5-
E-------------------------------3----3---------------------------------------------------------------------
How does she cope with her new found                fae  ae    ae   ame

E----------------------------------------------------------------------------------------
B----------------------------------------------------------------------------------------
G-------------------------------5--- 5-------- 7----7------4----- 4------------9------- 9
D-------------------------------5--- 5-------- 7----7------4----- 4------------9------- 9-
A-------------------------------3--- 3-------- 5----5------2----- 2------------7------- 7
E----------------------------------------------------------------------------------------
    Everyone asked me         who the hell is     she,             that

E---------------------------------------------------------------------------------------------------------------
B---------------------------------------------------------------------------------------------------------------
G-------------------------------5----- 5------ 7---------------------------------------------------------------
D-------------------------------5----- 5------ 7-----------------5-5-5-5-5-5-5-5-------------------------
A-------------------------------3----- 3------ 5-----------------5-5-5-5-5-5-5-5--------------------------
E------------------------------------------------------------------3-3-3-3-3-3-3-3--------------------------
    weirdo with 5 colours in her hair


Outro:
E----------------------------------------------------------------------------------
B----------------------------------------------------------------------------------
G----------------------------------------------------------------------------------
D------------------------------------------0--5--5--3--5--3--0----------------
A--------------------1--3--1--3--1--3------------------------------------------
E--3--1--3--1--3----------------------------------------------------------------

E-------------------------------------------------------------------------------------
B-------------------------------------------------------------------------------------
G-------------------------------------------------------------------------------------
D------------------------0--5--5--3--5--3--0-------------------------------------
A 4--3--1--3--1--3---------------------------4--3--1--3--1--3-----------------
E-------------------------------------------------------------------------------------

(This is played when the do do do do do doo's are sang at the very end!)
Let the open D ring out at the end, and that’s you! 


Comments