Mcfly - Five Colours In Her Hair Chords & Tabs

 

Mcfly Chords & Tabs

Version: 1 Type: Bass Tab 0 ratings
1 star 2 stars 3 stars 4 stars 5 stars
comments

Five Colours In Her Hair Bass Tab

The only other tabs I found for this song, the intro was completely wrong. Seriously, 
person who wrote it had to have been on crack....joke. Well, these are right, I'm positive.


Intro:
|--------14--12====s11------14--12---|
|----12------------------12----------|
|------------------------------------|
|------------------------------------| (x2)

|--------|
|--------|
|--------|
|--15\---|

|----------------------------------------------------------|
|----------------------------------------------------------|
|----------7----------------------------7------------------|
|-0-0-0-0------0-0-0-0--3-5-2--0-0-0-0------0-0-0-0--3-5-2-|

Verse: (0:23)
|--------------------------------------------------------------------|
|--------------------------------------------------------------------|
|--------------3------------5----------3-----------------------------|
|-0-----------------------------------------------3---------3--5--2--|

|-----------------------------------------------------------------|
|-----------------------------------------------------------------|
|--------------3------------5----------3--------------------------|
|-0-----------------------------------------------3-3-3-3-3-3-3---|

Chorus:
|----------------------------------------------------------------------|
|----------------------------------------------------------------------|
|-3--------3--5--------5--5h7--7-7-5h7-7-7--7-5h7-7-7--7-5h7-7-7-7-7---|
|--------3-----------5-------------------------------------------------|

|------------------------------------------------------------|
|------------------------------------------------------------|
|-3-------3--5-----5-5---------------------------------------|
|-------3--------------3-3-3-3-3-3-3-3-3-3-------------------|

|----------------------------------------------------------------------|
|----------------------------------------------------------------------|
|-3--------3--5--------5--5h7--7-7-5h7-7-7--7-5h7-7-7--7-5h7-7-7-7-7---|
|--------3-----------5-------------------------------------------------|

|-----------------|
|-----------------|
|-3-------3--5----|
|-------3---------|

|----------------------------------------------------------|
|----------------------------------------------------------|
|----------7----------------------------7------------------|
|-0-0-0-0------0-0-0-0--3-5-2--0-0-0-0------0-0-0-0--3-5-2-|

Verse: (1:33)
|-------------------------------------------------------------|
|----------------------2-4-5---------------------------7-5-4--|
|----------7------------------3------3--3-5-7-5--5-5-5--------|
|-0-0-0-0------0-0-0-0----------------------------------------|

|---------------------------------|
|---------------------------------|
|-3---3-5-7-----------------------|
|-----------3-------------3-5-2---|

|-----------------------------------------------------------|
|----------------------2-4-5-------------------------7-5-4--|
|----------7------------------3-------3-5-7-5--5-5-5--------|
|-0-0-0-0------0-0-0-0--------------------------------------|

|---------------------------------|
|---------------------------------|
|-3---3-5-7-----------------------|
|-----------3-3-3-3-3-3-3-3-3-3-3-|

Chorus: (2:04)
|----------------------------------------------------------------------|
|----------------------------------------------------------------------|
|-3--------3--5--------5--5h7--7-7-5h7-7-7--7-5h7-7-7--7-5h7-7-7-7-7---|
|--------3-----------5-------------------------------------------------|
[ Tab from: http://www.guitartabs.cc/tabs/m/mcfly/five_colours_in_her_hair_btab.html ]
|------------------------------------------------------------|
|------------------------------------------------------------|
|-3-------3--5-----5-5---------------------------------------|
|-------3--------------3-3-3-3-3-3-3-3-3-3-------------------|

|----------------------------------------------------------------------|
|----------------------------------------------------------------------|
|-3--------3--5--------5--5h7--7-7-5h7-7-7--7-5h7-7-7--7-5h7-7-7-7-7---|
|--------3-----------5-------------------------------------------------|

|-----------------|
|-----------------|
|-3-------3--5----|
|-------3---------|

Interlude: (2:33)
|----------------------------------------------------------------------|
|---------------------------------------5-5-5-------5-5-5-------7-7-7--|
|----------7-7-7-----------7-7-7--3-3-3-------3-3-3-------5-5-5--------|
|-0-0-0-0---------0-0-0-0----------------------------------------------|

|--------------------------------------------------------------------|
|----------------------------------------------------5-5-5-------5---|
|-6-6-6-6-6-6-----------7-7-7-----------7-7-7--3-3-3-------3-3-3-----|
|--------------0-0-0-0---------0-0-0-0-------------------------------|

|-7--6----------------------------------------------------------|
|---------------------------------------------------------------|
|-------2-2-2s14-14-14---777777-666666-555555-444444--3------5--|
|---------------------------------------------------------------|

Slow Chorus:(3:09)
|--------------------------------------------------------------|
|-10------12------14-------10-------12-------------------------|
|-----------------------------------------10-10-10-10-10-10-10-|
|--------------------------------------------------------------|

|------------------------------------------------------------|
|------------------------------------------------------------|
|------------------------------------------------------------|
|-8\--------10\-----------3s17\\-----------------------------|

Chorus: (3:28)
|-----------------------------------------------------------|
|-----------------------------------------------------------|
|---------7-7-7----------7-7-7---3-3-3-3-3-3-5-5-5-5-5-5----|
|-0-0-0-0--------0-0-0-0------------------------------------|


|-----------------------------------|
|-----------------------------------|
|-----------------------------------|
|-3-3-3-3-3-3-3s15-15-15-15-15-15---|

|----------------------------------------------------------------------|
|----------------------------------------------------------------------|
|-3--------3--5--------5--5h7--7-7-5h7-7-7--7-5h7-7-7--7-5h7-7-7-7-7---|
|--------3-----------5-------------------------------------------------|

|------------------------------------------------------------|
|------------------------------------------------------------|
|-3-------3--5-----5-5---------------------------------------|
|-------3--------------3-3-3-3-3-3-3s15-15-15-15-15-15-15----|

|--------------------------------------------------|
|--------------------------------------------------|
|-15-15-15-15-15-15-15-15-17-17-17-17-17-17-17-17--|
|--------------------------------------------------|

|----------------------------------------------------|
|----------------------------------------------------|
|--7-7-7---------7-7-7------------------3------3--5--|
|--------0-0-0-0--------0-0-0-0---------------3------|

Outro: (4:10)
|-----14--12-----------14--12====s11-|
|--12--------------12----------------|
|------------------------------------|
|------------------------------------|

|------14--12-----------|
|--12-------------------|
|-----------------------|
|--------------------0--|
Comments