Mcfly - Dont Know Why Chords & Tabs

 

Dont Know Why Chords & Tabs

Mcfly Chords & Tabs

Version: 1 Type: Tab 0 ratings
1 star 2 stars 3 stars 4 stars 5 stars
comments

Dont Know Why Tab

   
Hey Hey i submitted this tab but i submited it as an unregistered user as i found out i
wasnt even logged in in my account so here goes

Capo 1st

G   F C
Verse G F C
Bridge  C G
Chorus  G F C

Verse G F C
Bridge  C G
Chorus  G F C
“
Dreams We Have As Kids All Fade Away”
e--------------------------------------------------------------------------|
b--------------------------------------------------------------------------|
g-8-7-5-3-2-3-2-0----------------------------------------------------------|
 Then Play G

Now Its Not The Same
e--------------------------------------------------------------------------|
b--------------------------------------------------------------------------|
g-8-7-5-----3------2-------------------------------------------------------|
Then Play G

Then Chords Over Solo
 G F C

Solo
[ Tab from: http://www.guitartabs.cc/tabs/m/mcfly/dont_know_why_tab.html ]
e----------------------------------------------------------------------------|
b--------- 8--10bbb----10p8--8- 8h10--13-12-10-8~8h10p8-8h10--13--12--10--8--|
g—7h9p7----------------------------------------------------------------------|
d----------------------------------------------------------------------------|
a----------------------------------------------------------------------------|
e----------------------------------------------------------------------------|

e---10-10b—8-7-7h8p7—5h7p5-3h5p3-3-------------------------------------------|
b----------------------------------------------------------------------------|
g----------------------------------------------------------------------------|
d----------------------------------------------------------------------------|
a----------------------------------------------------------------------------|
e----------------------------------------------------------------------------|

Chorus Chords Repeat till end

G Cadd9 C

Then G at end Switches From G to C And Ends On G

Then This

e----------3--------3-----------------------------3----------------3----------|
b------3-----3---------3---------------------3------3----------3----3---------|
g---0-----------0---------0--------------0------------0-----------------------|
d-------------------------------------3---------------------------------------|
a-------------------------------3h5------------------------3---- --------1-0--|
e-----------------------------------------------------------------------------|  
He Then plays the quick part which is too hard to figure out,
Then ends on this palm muted

e---------|
b---------|
g---------|
d---5-----|
a---5-----|
e---------|

SO THERE YOU HAV IT 3 time lucky in submiting it, hope u like, as ive sed im so sure 
the capo positioning after seein them live PLZ RATE THIS! Email me if any probs
ed_whelan@hotmail.co.uk

Ed ;) xx
Comments