Mcfly - All About You Chords & Tabs

 

All About You Chords & Tabs

Mcfly Chords & Tabs

Version: 5 Type: Bass Tab 0 ratings
1 star 2 stars 3 stars 4 stars 5 stars
comments

All About You Bass Tab

All About You-Mcfly

(1:02)

G|-------------------------31---------------|
D|---4------------6------3---4--------------|
A|-----431--6-6----6--4-1----------4--------|
E|-2---------6--4---4--1------2-44--444444--|

Solo
G|--------------------------------------|
D|------------------------6-------------|
A|-4---1-1---------64-44-4-46-----------|
E|---1--1-4-2-22-44---------------------|

(1:46)
[ Tab from: http://www.guitartabs.cc/tabs/m/mcfly/all_about_you_btab_ver_5.html ]
G|-----------------------------------------------31------------------------|
D|---------------------------6------------------3--43-44-----65---------464|
A|---2s9-99-431-11-66-6-------6----4-446---3--11-----------------4-----4---|
E|-22----------------6-63644---4s--------1-4-----------4644---22-44642----|

(0:23)

G|------------------------------------------------|
D|-11--13-----13-1111-----------------------------|
A|---13--11-13----------66----6-------------------|
E|-------------------66----4-6--------------------|

G|----------------------------------------------------|
D|----------------------------------------------------|
A|-443-1-1-11-6-6------6-4-4-13-1341-6-66-9----4------|
E|---------------6-44-6-------------------------------|
Comments