Mcfly - All About You Chords & Tabs

 

All About You Chords & Tabs

Mcfly Chords & Tabs

Version: 3 Type: Bass Tab 0 ratings
1 star 2 stars 3 stars 4 stars 5 stars
comments

All About You Bass Tab

McFly
All About You (Bass)
Tuning: Standard
Transcribed by Soch H.

Listen to the song carefully because I know these notes are played in the song
I put a lot of effort into this tab to make it as accurate as possible. Enjoy!

(0:48) One bass root note is played. (This note is clearly heard)
|-------------|
|-------------|
|--16---------|
|-------------|

Bass Starts:
(And I would answer...)(1:03)
|------------------------------------------|
|------------------------------------------|
|-----------4--3--1-------6-----6----------|
|-2---------------------6-----6------4-----|

(So hold me close..) (1:18)
|------------------------------------------------------------|
|------------------------------------------------------------|
|-4----------1-----1-----------4-----------4-----------------|
|------1---------1-----4----2------4--4---------4--4-4-4-4---|

Guitar Solo: (1:32)
|-------------------------------------------------------------|
|-------------------------------------------------------------|
|-4-----------1------1-------------------4s6--4--4----4--4----|
|------1-----------1-----4----2---2-4--4----------------------|

Drums Kick In (And I would answer...) (1:47) 
|-----------------------------------------------------------------|
|-----------------------------------------------------------------|
|-----------------------4--3--1---1-1-1-----6--6---6--------------|
|-2--2---2s==14--14-----------------------6------6----6-3-6-4--4--|
[ Tab from: http://www.guitartabs.cc/tabs/m/mcfly/all_about_you_btab_ver_3.html ]
(2:00)            Hold me close...
|----------------------------------------------3--1------------|
|---------------------------------------------------4--3--4--4-|
|-6---------------4--4-4-6-6------3----1--1--------------------|
|---6-4--4s16\----------------1-----4--------------------------|

(Dancing on the kitchen tiles...) (2:10)
|---------------------------------------------------|
|-----------8-6-------------------------------------|
|---------------------------------------------------|
|-4-6--4--4-------2--2--6--4--4-6-4---2--2s14\------|

Chorus: (Its all about you...) (2:23)
|-----------------------------------------------------------------|
|-11--------13------------13-11=\---------------------------------|
|------13---------11---13------------------6--6----------6-4------|
|------------------------------------6--6---------4----6----------|

Drums Kick In (Its all about you...) (2:38)
|-----------------------------------------------------------------|
|-----------------------------------------------------------------|
|-4---3-1--1---1----6--6-----------6-4--4---4-----3--4---6--6-6-6-|
|------------1-----------6--4-4--6--------4----6-------6----------|

Ending: (2:51)
|-----------------------------------------------------------|
|-----------------------------------------------------------|
|-----------------------------4-----------------------------|
|-2---------------------------------------------------------|
                Its all about youuuuuuuuuuuuuu

Legend: 
s - slide
Comments