Mcfly - All About You Chords & Tabs

 

All About You Chords & Tabs

Mcfly Chords & Tabs

Version: 2 Type: Bass Tab 0 ratings
1 star 2 stars 3 stars 4 stars 5 stars
comments

All About You Bass Tab

   
All About You
McFly
Bass Tab
Standard Tuning

I tabbed this song because every tab i found for it was wrong, this one is right, trust me!!

"It's all about you.."

G ------------------I---------|     2nd time through play up to the line
D ---------1-1------I---------|
A -4-4-1-1----------I-1-3-4---| x2
E ------------4-4---I---------|

"Yesterday.."

G ------------------------------|
D ------------------------------|
A -4-4-1-1-----------------4-4--| x2
E ---------1-1-4-4-1-1-4-4------|
[ Tab from: http://www.guitartabs.cc/tabs/m/mcfly/all_about_you_btab_ver_2.html ]
"I would answer.."                    ] repeat this whole section
                                      ]
G ------------------------------      ]
D -----4-4----------------------      ]
A ---------4-3-1-6-6-6-6--------      ]
E -2-2-------------------4-4-4--      ]
                                      ]
"So hold me close.."                  ]
                                      ]
G -------------------------           ]
D -------------------------           ]
A -4-4-----1-1-1---------4- x2        ]
E -----1-1-------4-2-2-4---           ]

"Danicin on.."

G -------------------------|
D -------------------------|
A -------------------------|
E -2-2-4-4-2-2-4-4-2-2-4-4-|

"It's all about you.."

G ----------------------|  repeat till end
D --------1-1-----------|
A -4-4-1-1--------1-3-4-|
E ------------4-4-------|
Comments