Mcfly - All About You Chords & Tabs

 

All About You Chords & Tabs

Mcfly Chords & Tabs

Version: 1 Type: Bass Tab 0 ratings
1 star 2 stars 3 stars 4 stars 5 stars
comments

All About You Bass Tab

"I would answer all your wishes.... *1:02

G------------------------------------|
D------------------------------------|
A----------4-3-1-----1/6--1/6--------|
E--2---2-----------------------4--4--|


"So hold me close....."  *1:17

G-------------------------------|
D-------------------------------| X2 (During solo aswell)
A--4-------1----1------------4--|
E------1----------4-2----2/4----|


"I would answer all your wishes...." When drums come in. *1:47

G-----------------------------------------|
D-----444---------------------------------|
A------------4-3--1-----6-6-6-6-----------|
E--222-----------------------------4-4-4--|


"So hold me close...." *2:02
[ Tab from: http://www.guitartabs.cc/tabs/m/mcfly/all_about_you_btab.html ]
G-------------------------------|
D-------------------------------|
A--4-4---------1-1---1----------|
E--------1-1-----------4-2-1----|


"Dancin' on the kitchen tiles....." *2:09

G--------------------------------------|
D--------------------------------------|
A--------------------------------------|
E--2-2---4-4-----2-2---4-4----2-2---4--|


"It's all about you" the quiet part *2.23

G------------------|
D------------------|
A--4---1---6-------|
E--------------4---|


G--------------------------|
D--------------------------| x2
A--4-4---1-1---6-6---------|
E--------------------4-4---|


"It's about. . . . .you."
G--------------------------|
D--------------------------|
A--4-4---1-1---6-6---------|
E--------------------4---4-|
Comments