McFly - 5 Colours In Her Hair Chords & Tabs

 

5 Colours In Her Hair Chords & Tabs

McFly Chords & Tabs

Version: 3 Type: Tab 0 ratings
1 star 2 stars 3 stars 4 stars 5 stars
comments

5 Colours In Her Hair Tab

   
McFly
5 Colours In Her Hair
Am- 01220x
B - 24442x /  778997 
C - 01023x /  9.9.10.11.11.9 
Cm- 34553x
D - 2320xx /  10.10.11.12.12x
E - 001220
Em- 000220 /  78997x
F - 112331
Fm- 111331
G - 330023 /  7879(10)x

intro

e-----------------------------------------------------------------------------|
B-----------------------------------------------------------------------------|
G-----------------------------------------------------------------------------|
D---------------------0-3-5-5-3-5-3-------------0-3-5-5-3-5-3-------------0-3-|
A---------0-3-3-1-3-3---------------5-4-3-1-3-3---------------5-4-3-1-3-3-----|
E-3-1-3-3---------------------------------------------------------------------|

e------------------------------|  2x
B------------------------------|
G------------------------------|
D-5-5-5-5-5-5-5-5-5-5-5-5-5----|
A------------------------------|
E------------------------------|

Do do do part/intro
  G7             C        /        
e|--1---1---1-1---0---0---3---        -2-
B|--0---0---0-0---1---1---1---  \     -3-
G|--0---0---0-0---0---0---0---   \    -2-
D|--0---0---0-0---2---2---2---   /x3  -0- x16
A|--2---2---2-2---3---3---3---  /     -x-
E|--3---3---3-3---x---x---x---        -x-

VERSE 1:


G                          F                    G
She's got a lip ring and 5 colours   in   her   hair...

G                          F                    D
Not into fashion  but  I   love the clothes she wears,

G                          F                    G
Her tattoo's always hidden by      her    under-wear.
             C       D

She  don't  ca   -   re.

Chorus
G                Em                C                D
Everybody        wants to know her na       -      me,

G                Em                C                D          
I threw a house  party  and   she  ca       -      me,

C                D                 B                Em
Everyone  asked  me                Who the hell is  she? That

C                D                 G
weirdo  with  5  colours  in  her  hair. 
bridge
e|-----------------------------------
G|-----------------------------------
B|-----------------------------------
D|--5---3-5--5-5-5-5---3-5--5-5-5-5--
A|--5---3-5--5-5-5-5---3-5--5-5-5-5--
E|--3---1-3--3-3-3-3---1-3--3-3-3-5--




VERSE 2:     
                  ____________________________________________________at this point
                 /                                                    Guitar 2 plays:  
G               /                F                   G                  
She's  just  a  loner  with  a   sexy     atti   -   tude,           e|------------------
                                                                     B|--15-15-13--------
(G)                              F                   D               G|-----------15-12--
I'd like to phone her cause she  puts  me  in  the   mood,           D|------------------
                                                                     A|------------------
G                                F                   G               E|------------------
The rumours spreading round that she cooks  in  the  nude               WITH DISTORTION

                C                 D
But she  don't  care,  she  don't ca         -       re


CHORUS 2
[ Tab from: http://www.guitartabs.cc/tabs/m/mcfly/5_colours_in_her_hair_tab_ver_3.html ]
G                 Em                 C                D
Everybody         wants to know her  na       -      me,
 
G                 Em                 C                D          
How does she cope with her new found fa       -      me,

C                 D                  B                Em
Everyone  asked   me                 Who the hell is  she? That

C                 D                  G
weirdo  with  5   colours  in   her  hair. 



INTERLUDE 1:


Guitar 1:

    G      G/F#       E               Am     (G)      F               Fm
e|------3-------3-----0---------------0-------3-------1---------------1---------
B|----3---3---3---3---0---------------1-------3-------1---------------1---------
G|--------------------1---------------2-------0-------2---------------1---------
D|--------------------2---------------2-------0-------3---------------3---------
A|--------------------2---------------0-------2-------3---------------3---------
E|--3-------2---------0---------------x-------3-------1---------------1---------

Guitar 2:  listen carefully you'll hear this part

                      E               Am     (G)      F               Fm
e|--------------------------------------------------------------------1---------
B|--------------------------------------------------------------------1---------
G|----------------------------4-----4-------------7-------------------1---------
D|------------------------4-6-----6---7-----7-5-----5-3---7-5-3---7-5-3---------
A|--------------------7-------------------7---------------------------3---------
E|--------------------------------------------------------------------1---------
        
She was all I thought about, the girl I couldn't live without. But then she went in...




INTERLUDE 2 (continued):


Guitar 1:     G       Em      C       D       G       Em      C       D
e|---3-------3-------3-------2-------3-------3-------3-------2----
B|---3-------0-------1-------3-------3-------0-------1-------3----
G|---0-------0-------0-------2-------0-------0-------0-------2----
D|---0-------2-------2-------0-------0-------2-------2-------0----
A|---2-------2-------3-------x-------2-------2-------3-------x----
E|---3-------0-------x-------x-------3-------0-------x-------x----
Key  i       ii     iii                      iv      v 

     C       D       B       Em  D   Cadd9           Cm
  ---0-------2-------2-------3---2---0---------------3------------
  ---1-------3-------4-------0---3---3---------------4------------
  ---0-------2-------4-------0---2---0---------------5------------
  ---2-------0-------4-------2---0---2---------------5------------
  ---3-------x-------2-------2---x---3---------------3------------
  ---x-------x-------x-------0---x---x---------------x------------
Key  vi     vii     viii    ix   x   xi             xii




...sane.  She couldn't take the fame, she said I was to blame.  She'd had enough
             
and shaved five colours off and now, she's just a weirdo with no name.


SOLO   same as INTRO, except no singing,

CHORUS  same as CHORUS 2, except Guitar 2 plays a high bit:
------

OUTRO: same as INTRO but 

                 D             Em11
        replace -2-     with  -0- 
                -3-           -0-
                -2-           -0-
                -0- x16       -0-  x1 (let it ring)
                -x-           -x-
                -x-           -x-
     

ORDER:

INTROx2
VERSE 1
CHORUS 1
VERSE 2
CHORUS 2
INTERLUDE 1 & 2
SOLO
CHORUS 2 v2
OUTRO

Comments