Mcfly - 5 Colours In Her Hair Chords & Tabs

 

5 Colours In Her Hair Chords & Tabs

Mcfly Chords & Tabs

Version: 3 Type: Bass Tab 0 ratings
1 star 2 stars 3 stars 4 stars 5 stars
comments

5 Colours In Her Hair Bass Tab

-McFly
- 5 colours in her hair
- Bass guitar
- thomas.viseux@hotmail.fr

PLEASE RATE AND COMMENT ! =)


My way to play this song, I prefer it so much than the others tabs, so I've write it : 


Intro/Main rift : 

G|------------------------------------------------------|\
D|------------------------3-4-5--3-5-3-5-3--------------| \
A|----------1-2-3--1-3--5-----------------5-4-3--1-3----|  \
E|-3--1-3-3---------------------------------------------|   \
							    X2
G|------------------------------------------------------|   /
D|---3-4-5--3-5-3-5-3-----------------------------------|  /
A|-5-----------------5-4-3--1-3--1-3-4-5555555555555----| /
E|------------------------------------------------------|/

verse 1:

G|-----------------------------------------------------|
D|-----------------------------------------------------|
A|-----------------------------------------5-5-5-5-5-5-|
E|-3X--1-1-1--11/3--3-3-3-1H3X--1-1-1-1-11-------------|

G|-----------------------------------------------------|
D|-----------------------------------------------------|
A|-----------------------------------------------------|
E|-3-3-3--3--3--3-3-3---1-1-1-1/3--3-3-3---------------|

G|-----------------------------------------------------|
D|-----------------------------------------------------|
A|-3-3-3-3-3---5X--------------------------------------|
E|-----------------------------------------------------|


chorus 1:

G|--------------------------------------------------------|
D|--------------------------------------------------------|
A|---------------------3--33-3---5--55-5------------------|
E|-3--33-3---0--00-0--------------------------------------|

G|--------------------------------------------------------|
D|--------------------------------------------------------|
A|---------------------3--33-3---5--55-5------------------|
E|-3--33-3---O--00-0--------------------------------------|

G|--------------------------------------------------------|
D|-------------------------------2--22-2------------------|
A|-3--33-3---5--55-5---2--22-2----------------------------|
E|--------------------------------------------------------|

G|-----------------------------------------------------|
D|-----------------------------------------------------|
A|-3--33-3---5X----------------------------------------|
E|-----------------------------------------------------|

Riff:

G|-------------------------------------------------------|
D|-------------------------------------------------------|
A|-------------------------------------------------------|
E|-3--1-3--3333-3--1-3--333------------------------------|

verse 2:

G|------------------------------------------------------------|
D|------------------------------------------------------------|
A|-----------------------------------------5-5-5-5-5-5--------|
E|-3X--1-1-1--11/3--3-3-3-1H3X--1-1-1-1-11--------------------|

G|------------------------------------------------------------|
D|------------------------------------------------------------|
A|------------------------------------------------------------|
E|-3-3-3--3--3--3-3-3---1-1-1-1/3--3-3-3----------------------|

G|------------------------------------------------------|
D|------------------------------------------------------|
A|-3333333333---5555555555------------------------------|
E|------------------------------------------------------|


chorus 2:
[ Tab from: http://www.guitartabs.cc/tabs/m/mcfly/5_colours_in_her_hair_btab_ver_3.html ]
G|--------------------------------------------------------|
D|--------------------------------------------------------|
A|---------------------3--33-3---5--55-5------------------|
E|-3--33-3---0--00-0--------------------------------------|

G|--------------------------------------------------------|
D|--------------------------------------------------------|
A|---------------------3--33-3---5--55-5------------------|
E|-3--33-3---O--00-0--------------------------------------|

G|--------------------------------------------------------|
D|-------------------------------2--22-2------------------|
A|-3--33-3---5--55-5---2--22-2----------------------------|
E|--------------------------------------------------------|

G|--------------------------------------------------------|
D|--------------------------------------------------------|
A|-3--33-3---5X-------------------------------------------|
E|--------------------------------------------------------|

interlude:

G|-----------------------------------------------------|
D|----------------------------------9----9-7---7-------|
A|----------9~---------------7-9-11---11-----7---------|
E|-3~--------------------------------------------------|

G|-----------------------------------------------------|
D|---------12-----------7-------------7----------------|
A|----10-------10---8--------10---8----------10---8~---|
E|-----------------------------------------------------|

G|-----------------------------------------------------|
D|-------------------------10----12-12-----------------|
A|---------------10----7-------------------------------|
E|-----------------------------------------------------|X2

G|-----------------------------------------------------|
D|---------------10----12---------2----------------/10-|
A|---------------------------2-------5--3--------------|
E|-----------------------------------------------------|

Intro/Main rift ( Just a little part ): 

G|------------------------------------------------------|   
D|---3-4-5--3-5-3-5-3-----------------------------------|  
A|-5-----------------5-4-3--1-3--1-3-4-5555555555555----| 
E|------------------------------------------------------|

chorus 3:

G|--------------------------------------------------|
D|--------------------------------------------------|
A|---------------3--33-3---5--55-5------------------|
E|-3X-----0x----------------------------------------|

G|--------------------------------------------------|
D|--------------------------------------------------|
A|---------------------3--33-3---5--55-5------------|
E|-3--33-3---O--00-0--------------------------------|

G|--------------------------------------------------|
D|-------------------------------2--22-2------------|
A|-3--33-3---5--55-5---2--22-2----------------------|
E|--------------------------------------------------|

G|--------------------------------------------------|
D|--------------------------------------------------|
A|-3--33-3---5555-----------------------------------|
E|--------------------------------------------------|

Intro/Main rift (End) : 

G|------------------------------------------------------|
D|------------------------3-4-5--3-5-3-5-3--------------| 
A|----------1-2-3--1-3--5-----------------5-4-3--1-3----|  
E|-3--1-3-3---------------------------------------------|   
							   
G|------------------------------------------------------|   
D|---3-4-5--3-5-3-5-3-----------------------------------|  
A|-5-----------------5-4-3--1-3--1-3-4-5555555555555----| 
E|------------------------------------------------------|


Thx. Fisrt Tab =) 
Comments