Mcfly - 5 Colours In Her Hair Chords & Tabs

 

5 Colours In Her Hair Chords & Tabs

Mcfly Chords & Tabs

Version: 2 Type: Bass Tab 0 ratings
1 star 2 stars 3 stars 4 stars 5 stars
comments

5 Colours In Her Hair Bass Tab

   
---------------------------------------------------------------------
		   5 Colours in Her Hair - McFly
---------------------------------------------------------------------

Tabbed By : br
e-mail: super_br@hotmail.co.uk

Tuning: Standard

This is completely accurate, as it is from the official McFly Tab book. Enjoy...

Main Riff:

G|-----------------------7-10-11-12-12-10-12-10-7------------7-10-11|
D|-----------8-9-10-8-10--------------------------11-10-8-10--------|
A|10-8-10-10--------------------------------------------------------|
E|------------------------------------------------------------------|

G|12-12-10-12-10-7--------------------------------------------------|
D|-----------------11-10-8-10-8-10-11-12-12-12-12-12-12-12-12-12-12-|
A|------------------------------------------------------------------|
E|------------------------------------------------------------------|

G|------------------|
D|12-12-12-12-12-12-|
A|------------------|
E|------------------|

Play Twice

1st Verse:

G|-----------------------------12------------7-7-7-7-12-12-12-12-12-|
D|------------------------------------------------------------------|
A|10-8-8-8-8-10-10-10-10-10-10----10-8-8-8-8------------------------|
E|------------------------------------------------------------------|

G|12-12-12-10-10-10-10-12-12-12-12----------------------------------|
D|---------------------------------10-10-10-10-10-10-10-10----------|
A|---------------------------------------------------------5--------|
E|------------------------------------------------------------------|

Chorus:

G|------------------------------------------------------------------|
D|------------------------------------------------------------------|
A|10-10-10-10-7-7-7-7-3-3-3-3-5-5-5-5-10-10-10-10-7-7-7-7-3-3-3-3---|
E|------------------------------------------------------------------|

G|------------------------------------------------------------------|
D|------------------------------------------------------------------|
A|5-5-5-5-3-3-3-3-5-5-5-5-2-2-2-2-7-7-7-7-3-3-3-3-5-----------------|
E|------------------------------------------------------------------|
 
Then Play This:

G|------------------------|
D|------------------------|
A|10-10-10-10-10-10-10-10-|
E|------------------------|

2nd Verse:

G|------------------------------/12---------------------------------|
D|------------------------------------------------------------------|
A|10-/8-8-8-8-10-10-10-10-10-10-----10------------------------------|
E|------------------------------------------------------------------|

G|--------7-7-7-7-12-12-12-12-12-12-12-12-10-10-10-10-12-12-12-12---|
D|------------------------------------------------------------------|
A|8-8-8-8-----------------------------------------------------------|
E|------------------------------------------------------------------|
[ Tab from: http://www.guitartabs.cc/tabs/m/mcfly/5_colours_in_her_hair_btab_ver_2.html ]
G|------------------------------------7-7-7-7-7-7-7-7---------------|
D|10-10-10-10-10-10-10-10-10-10-10-10-------------------------------|
A|------------------------------------------------------------------|
E|------------------------------------------------------------------|

Chorus:

G|------------------------------------------------------------------|
D|------------------------------------------------------------------|
A|10-10-10-10-7-7-7-7-3-3-3-3-5-5-5-5-10-10-10-10-7-7-7-7-3-3-3-3---|
E|------------------------------------------------------------------|

G|------------------------------------------------------------------|
D|------------------------------------------------------------------|
A|5-5-5-5-3-3-3-3-5-5-5-5-2-2-2-2-7-7-7-7-3-3-3-3-5-----------------|
E|------------------------------------------------------------------|
 
Bridge:

G|--------------------------------7---7----7------------------------|
D|------------------------------------------------------------------|
A|10-10-10-10-9-9-9-9-7-7-7-7-7-7---7---10---10-8-8-8-8-8-8-8-8-----|
E|------------------------------------------------------------------|

G|-----------------------7-7----7-7------7----17--------------------|
D|--------------------10----10------9-14---10-----------------------|
A|10-7-7-3-5-5-10-7-7-----------------------------------------------|
E|------------------------------------------------------------------|

Guitar Solo (Main Riff) Bass comes in later at:

G|7-10-11-12-12-10-12-10-7------------------------------------------|
D|-------------------------11-10----10-11-12-12-12-12-12-12-12-12---|
A|------------------------------------------------------------------|
E|------------------------------------------------------------------|

G|------------------------------------------------------------------|
D|12-12-12-12-12-12-12-12-------------------------------------------|
A|------------------------------------------------------------------|
E|------------------------------------------------------------------|

Chorus:

G|------------------------------------------------------------------|
D|------------------------------------------------------------------|
A|10-7-3-3-3-3-5-5-5-5-10-10-10-10-7-7-7-7-3-3-3-3-5-5-5-5----------|
E|------------------------------------------------------------------|

G|------------------------------------------------------------------|
D|------------------------------------------------------------------|
A|3-3-3-3-5-5-5-5-2-2-2-2-7-7-7-7-3-3-3-3-5-5-5-10------------------|
E|------------------------------------------------------------------|

Main Riff:

G|-----------------------7-10-11-12-12-10-12-10-7------------7-10-11|
D|-----------8-9-10-8-10--------------------------11-10-8-10--------|
A|10-8-10-10--------------------------------------------------------|
E|------------------------------------------------------------------|


G|12-12-10-12-10-7--------------------/17---------------------------|
D|-----------------11-10-8-10-8-10----------------------------------|
A|---------------------------------10-------------------------------|
E|------------------------------------------------------------------|
Comments