Mccartney Paul - Jet Chords & Tabs

 

Jet Chords & Tabs

Mccartney Paul Chords & Tabs

Version: 1 Type: Tab 1 rating
1 star 2 stars 3 stars 4 stars 5 stars
comments

Jet Tab

#----------------------------------PLEASE NOTE---------------------------------#
#This file is the author's own work and represents their interpretation of the #
#song. You may only use this file for private study, scholarship, or research. #
#------------------------------------------------------------------------------##
From: jblack@eureka.wbme.jhu.edu (Jason Black)

Jet - Paul McCartney

Intro: (repeats) 
                                 ~~~~~~
---------------------------------7-----
---------------------------------5-----
-4---4-6-7-------4---4-6-7-------------
-4---4-6-7-------4---4-6-7-------------
-2---2-4-5-------2---2-4-5-------------
---------------------------------------

At [1:55] (and also later):
[ Tab from: http://www.guitartabs.cc/tabs/m/mccartney_paul/jet_tab.html ]
----------------10-10----9-
-10-10----------12-10---10-
-11--9----9-9--------------
---------11-9--------------
---------------------------
---------------------------

At [2:03] there is a solo on something that might be an organ:

-17---14----------------------------------
---------17-14-------------14-------------
---------------16-14-14-16----------------
------------------------------16-16-16-14-
------------------------------------------
------------------------------------------

-/17-17-17-17-14---------------------------------
-----------------17-14-------------14------------
-----------------------16-14-14-16---------------
--------------------------------------16---14|16-
-------------------------------------------------
-------------------------------------------------

Notations:
~  vibrato
|  trill
/  slide

Jason Black
jblack@eureka.wbme.jhu.edu

Comments