Mccain Edwin - How Strange It Seems Chords & Tabs

 

How Strange It Seems Chords & Tabs

Mccain Edwin Chords & Tabs

Version: 1 Type: Tab 0 ratings
1 star 2 stars 3 stars 4 stars 5 stars
comments

How Strange It Seems Tab

   
##################################################################################
# This file is the author's own work and represents their interpretation of the  #
# song. You may only use this file for private study, scholarship, or research.  #
##################################################################################

Mc Cain Edwin - How Strange It Seems

Tabbed by Matt Cunningham

Chords
F       133211
F7      131211
Bb      x13331
Bbm7    113111
Cm7     335333
C#m7    446444
Gm7     353333
Am7     575555

Intro:

e--------------------------------------------------------------
b--------------------------------------------------------------
g--------------------------------------------------------------
d--/3--1----------/3--1----------/3--1---------------1--3--3---
a----------3--1-----------3--1-----------3--1----/3------------
E--------------------------------------------------------------

Verse:

e--------------
b--------------
g--------------
d--3--1--x--3--
a--3--3--x--1--
E--1--1--x-----


**************************************************************************************************************

**************************************************************************************************************


The Island Song
by Bruce Crichton
as performed by Edwin McCain and Larry Chaney
Tabbed by Matt Cunningham  (flaffles@unc.edu)

Open E tuning  Dropped one whole step -- open D
(same tuning as "She Talks to Angels" by the Black Crowes

low to high D A D F# A D

Chords
Key of D major

        D        C#m6      C       Bm7        G      Em7sus4     F#m6
 d------0---------0--------0--------0---------0---------0---------0--  
 a------0---------0--------0--------0---------0---------0---------0--    
f#-----12--------10-------10-------10---------5---------3---------3--  
 d------0---------0--------0--------0---------0---------0---------0--   
 a------0---------0--------0--------0---------0---------0---------0--  
 D-----12--------11-------10--------9---------5---------2---------4--    
[ Tab from: http://www.guitartabs.cc/tabs/m/mccain_edwin/how_strange_it_seems_tab.html ]
the song is basically a descending open chord 
pattern that changes tempo during choruses and 
interludes it's really simple, just stay in the rhythm
and I might add, a great song by a, sadly, little known songwriter


************************************************************************************************************************

************************************************************************************************************************



SEE THE SKY AGAIN
Tabbed by Matt Cunningham

Chords

Asus2      002200
Dsus2      xx0230
G/B        x20030
C9         x32030
G          320033

Intro:
e---------------------------------------------------
b---------------------------------------------------
g---------------------------------------------------
d---------------------------------------------------
a--9-9-9-9-9/10-10-10-10\9\7\5\2-2-2-2-2/3-3-3-3/5--
E---------------------------------------------------




Write Me... 
             The Flaffinator

CunninghamBrood@aol.com

**********************************************************************************************************************************

**********************************************************************************************************************************


Date: Thu, 07 May 1998 02:31:51 -0400
From: jbcook 
Subject: m/mccain_edwin/solitude.tab

Song: "Solitude"
Band: "Edwin McCain"
Album: "Honor Among Thieves"
Transcribed By: Jason Cook (jbcook@awod.com)

Chords:

Asus2:
e----------0-------
B-------------0----
G------2-----------
D----2-------------
A--0---------------
E------------------

Esus:
e----------0-------
B-------------0----
G------2-----------
D----0-------------
A--2---------------
E------------------

Dsus:
e-----0----0-------
B----3------3------
G---2--------2-----
D---0--------------
A------------------
E------------------

Esus/F#:
e---------0--------
B------------0-----
G------2--------2--
D----0-------------
A-0----------------
E-2----------------

F#m:   |244222|
G:     |355433|
Asus2*:|002200|
Dsus*: |000230|

_____________________________________________________________________________

Note: The breaks between each verse is just strumming: Asus2/Esus/Dsus
Questions Comments/Questions/Requests: jbcook@awod.com
-----------------------------------------------------------------------------
Comments