Mcareavy Diarmuid - Ruinous And Desolate Chords & Tabs

 

Ruinous And Desolate Chords & Tabs

Mcareavy Diarmuid Chords & Tabs

Version: 1 Type: Tab 0 ratings
1 star 2 stars 3 stars 4 stars 5 stars
comments

Ruinous And Desolate Tab

   
#----------------------------------PLEASE NOTE--------------------------------#
#This file is the author's own work and represents their interpretation of the#
#song. You may only use this file for private study, scholarship, or research.#
#-----------------------------------------------------------------------------#

Author/Artist: Diarmuid McAreavy 
Title: Ruinous and Desolate
Album: 
Transcribed by: Rabid_Fox (Diarmuid McAreavy)
Email: thecraftyfox@hotmail.com


**I only tab for Guitar Tab Universe!**


Tuning: Standard

e|0
b|0
g|14  Eb5sus4
D|14 
A|13
e|0

Riff 1
e|----0-------0-------0-------0--------------
b|------0-------0-------0-------0------------
g|--------0-------0-------0-------0----------
D|-------------------------------------------
A|-12-------9-------7-------5----------------
E|-------------------------------------------

Riff 2
e|----0-------0-------0-------0--------------
b|------0-------0-------0-------0------------
g|--------0-------0-------0-------0----------
D|-------------------------------------------
A|-12-------7-------9-------5----------------
E|-------------------------------------------

Riff 3
e|-------3-------3-------2-------2-------2-------2-------2-------2--
b|-----3-------3-------3-------3-------3-------3-------3-------3----
g|---2-------2-------2-------2-------0-------0-------2-------2------
D|-0-------0-------0-------0-------2-------2-------0-------0--------
A|------------------------------------------------------------------
E|------------------------------------------------------------------

Riff 4
e|----------------------------------------
b|-------1-------1-------1-------3--------
g|-----0-------0-------0-------0----------
D|---2-------0-------2-------4------------
A|-3---------------3-------5--------------
E|---------3------------------------------

___________________________________

Intro: Riff 1 x2

Riff 1
You're out of place here, you don't realise
Riff 1
You just breed here and live your lies
Riff 2
It won't hurt not that you're recognised
Riff 2
From your home under tired

Prechorus 1:
Riff 3
Scavanger, once noble, there's no escape, there's no way out
Riff 3
Your only guide is lying down, hiding behind sulphur clouds
[ Tab from: http://www.guitartabs.cc/tabs/m/mcareavy_diarmuid/ruinous_and_desolate_tab.html ]
Chorus:
Riff 4
Now an urban life, another city dweller
Riff 4
Adapt just to exist, breathe in and be mellow
Riff 4
Now an urban life, another city dweller
Em7 (picked)
Adapt just to exist, breathe in and be mellow

Riff 1 x2

Solo:
e|-----0---------0----------0----------0------
b|-------0---------0----------0----------0----
g|---------0---------0----------0----------0--
D|-5/7-------7/9-------9/11-------11/12-------
A|--------------------------------------------
E|--------------------------------------------

e|-----0---------0--------0------0-------------
b|-------0---------0--------0------0-----------
g|---------0---------0--------0------0---------
D|-----------12*----------------7*-------------
A|-12*------------------7*---------------------
E|---------------------------------------------

We miss you so much that we kill you
I'm sorry but this is just what we do
I'll maybe bid you a sad adieu
It's been before this' nothing new

Prechorus II:
Riff 3
Secretive, you were once beautiful, now shed your skin for us
Riff 3
Replace images with posing and we'll shake off the dust

Chorus II:

C            G6    C            Dadd4/add2
Now an urban life, another city dweller
C             G6     C             Dadd4/add2
Adapt just to exist, breathe in and be mellow
C            G6     C           Dadd4/add2
Now an urban life, another city dweller
Em7
Adapt just to exist, breathe in and be mellow

Bridge:
D      F                  Eb5sus4   D5
You've found out that the city's no good
D   F          Eb5sus4      D5
You can't even get your own food
D         F         Eb5sus4      D5
Life in a junkyard, searching for meals
Em7
Between old crisp packets and rotted orange peels

Outro:

e|---0------0------0------0------0------0-------0------0------0--------0----
b|-----0------0------0------0------0------0-------0------0------0------0----
g|-------0------0------0------0------0------0-------0------0------0----0----
D|---------------------------------------------------------------------2----
A|-12------9------7------5------3------2-------------------------------2----
E|---------------------------------------------5------3------2---------0----
Comments