Mcareavy Diarmuid - Personable Chords & Tabs

 

Personable Chords & Tabs

Mcareavy Diarmuid Chords & Tabs

Version: 1 Type: Tab 0 ratings
1 star 2 stars 3 stars 4 stars 5 stars
comments

Personable Tab

   
#----------------------------------PLEASE NOTE--------------------------------#
#This file is the author's own work and represents their interpretation of the#
#song. You may only use this file for private study, scholarship, or research.#
#-----------------------------------------------------------------------------#

Author/Artist: Diarmuid McAreavy 
Title: Personable
Album: 
Transcribed by: Rabid_Fox (Diarmuid McAreavy)
Email: thecraftyfox@hotmail.com


**I only tab for Guitar Tab Universe!**


Tuning: Standard

Riff 1
e|-------------------------------------------
b|---1---1---0---0---1---1---1---1-----------
g|-------------------------------------------
D|-2---2---2---2---2---2---3---3-------------
A|-------------------------------------------
E|-------------------------------------------

Riff 2
e|-------------------------------------------
b|---0---0----0---0---0---0---0---0----------
g|-------------------------------------------
D|-/5--5---/3---3---2---2---0---0------------
A|-------------------------------------------
E|-------------------------------------------

Intro:

Riff 1 x2

Riff 1
So young but now
Riff 1
As old as you'll be
Riff 1
No chance, no choice
Riff 2
Shall we cal it destiny?
[ Tab from: http://www.guitartabs.cc/tabs/m/mcareavy_diarmuid/personable_tab.html ]
Riff 1
Every skill you possessed
Riff 1
Was good for nothing or less
Riff 1
Your high price worthless
Riff 2
Every heartbeat useless

Chorus:
Em   Cmaj7    C#m  Em    Cmaj7   C#m
We've had the sly, we've had the wise
Em  Cmaj7 C#m Bm
Now left with deep tears in our eyes
Em   Cmaj7    C#m  Em    Cmaj7   C#m
We've been young and we've been fresh
Em  Cmaj7 C#m                Bm
There's been warm and lovely breaths
Em   Cmaj7    C#m  Em    Cmaj7   C#m
I've had auboun flames burning inside me
Em  Cmaj7 C#m Bm
Blinking back tears just to see
Em Cmaj7 C#m Em Cmaj7 C#m
Such a harsh and ugly mess
Em  Cmaj7 C#m        Bm
Just another done to death

Riff 1 x2

I guess I did all I could
To give you dignity
Probably the only one
Who would have done the deed

Empty gestures gone now
Like you, like you gone
I know my efforts were pure
But I've never felt so wrong

Chorus

End on Bm
Comments