Mcareavy Diarmuid - Nirvana B Side Chords & Tabs

 

Nirvana B Side Chords & Tabs

Mcareavy Diarmuid Chords & Tabs

Version: 1 Type: Tab 0 ratings
1 star 2 stars 3 stars 4 stars 5 stars
comments

Nirvana B Side Tab

   
#----------------------------------PLEASE NOTE--------------------------------#
#This file is the author's own work and represents their interpretation of the#
#song. You may only use this file for private study, scholarship, or research.#
#-----------------------------------------------------------------------------#

Author/Artist: Diarmuid McAreav 
Title: Nirvana B Side
Album: 
Transcribed by: Rabid_Fox (Diarmuid McAreavy
Email: thecraftyfox@hotmail.com


**I only tab for Guitar Tab Universe!**


Tuning: Standard

Note: Much distortion and chorus effect for preference. Scream

Intro:

e|-------------------------------------------
b|-------------------------------------------
g|-------------------------------------------
D|---------2-4b-4b-4b-4b-/6b--Feedback-------
A|-----2-3-----------------------------------
E|-3-5---------------------------------------

Riff 1
e|-------------------------------------------
b|-------------------------------------------
g|-5/7-7-7-7---------------------------------
D|-5/7-7-7-7--------------------------------- x4
A|-3/5-5-5-5---------------------------------
E|-------------------------------------------

Riff 2
e|-------------------------------------------
b|-------------------------------------------
g|-5/7-7-7-7---------------------------------
D|-5/7-7-7-7---------------------------------
A|-3/5-5-5-5---------------------------------
E|-------------------------------------------
You do
[ Tab from: http://www.guitartabs.cc/tabs/m/mcareavy_diarmuid/nirvana_b_side_tab.html ]
Riff 3
e|-------------------------------------------
b|-------------------------------------------
g|-2-2--3-3--2-2--3-3------------------------
D|-2-2--3-3--2-2--3-3------------------------
A|-0-0--1-1--0-0--1-1------------------------
E|-------------------------------------------
Everything that I can't do
Riff 2
Anything
Riff 3
All that well or that great
Riff 2
I tried
F         G          A
Too hard, too little too late

Chorus:

e|-------------------------------------
b|-------------------------------------
g|-------11-11-------------------------
D|-11-11-11-11------------------------- Repeat until end of chorus
A|-11-11-9--9--------------------------
E|-9--9--------------------------------
But I've walked on a glacier
I've heard the clifftops music
Maybe I have everything
And it's up to me to loose it

Riff 1 x4

Riff 2
You do
Riff 3
All the things I can't do
Riff 2
Anything
Riff 3
All that well or that great
Riff 2
I learned
F       G       A 
So well so well to hate

Chorus
But I've walked on a glacier
I've heard the clifftops music
Maybe I have everything
And it's up to me loose it

On second repetition of chorus, move the chords up by two frets, ie:
e|-------------------------------------
b|-------------------------------------
g|-------13-13-------------------------
D|-13-13-13-13-------------------------
A|-13-13-11-11-------------------------
E|-11-11-------------------------------

Now: Random noise. Mine was

e|---------------------------------3-----
b|---------------------------------------
g|---------------------------------------
D|---------------------------------------
A|---------------------------------2-----
E|--15b--15b--15b--Descending Riff-3-----

But do have fun at this part.

End.
Comments