Mcareavy Diarmuid - Hedgerow Chords & Tabs

 

Hedgerow Chords & Tabs

Mcareavy Diarmuid Chords & Tabs

Version: 1 Type: Tab 0 ratings
1 star 2 stars 3 stars 4 stars 5 stars
comments

Hedgerow Tab

   
#----------------------------------PLEASE NOTE--------------------------------#
#This file is the author's own work and represents their interpretation of the#
#song. You may only use this file for private study, scholarship, or research.#
#-----------------------------------------------------------------------------#

Author/Artist: Diarmuid McAreavy 
Title:Hedgerow 
Album: 
Transcribed by: Rabid_Fox (Diarmuid McAreavy)
Email: thecraftyfox@hotmail.com


**I only tab for Guitar Tab Universe!**


Tuning: Standard

Riff 1
e|--3---3---/7---5----0---0---3---2-------
b|----------------------------------------
g|----0---0----0----0---0---0---0---0-----
D|-----------0----0---2---2---0---0-------
A|----------------------------------------
E|--3---3---------------------------------

Riff 2
e|--3---3---/7---7---5---5---3---3--------
b|----------------------------------------
g|----0---0----0---0---0---0---0----------
D|-----------0---0---0---0---0---0--------
A|----------------------------------------
E|--3---3---------------------------------

Riff 3
e|--0---0---3---3---2---2---0---0---------
b|----------------------------------------
g|----0---0---0---0---0---0---0---0-------
D|--2---2---0---0---0---0---0---0---------
A|----------------------------------------
E|----------------------------------------

Chords used:

Dsus4    
e|5
b|8
g|7
D|5
A|5
e|5
[ Tab from: http://www.guitartabs.cc/tabs/m/mcareavy_diarmuid/hedgerow_tab.html ]
G9
e|
b|7
g|7
D|5
A|
e|

D11
e|5
b|5
g|5
D|5
A|5
e|5

Fm9
e|
b|5
g|5
D|3
A|
e|

Fsus2
e|3
b|6
g|5
D|3
A|3
e|3

____________________________

Intro: Riff 1 x2

Riff 1
She lies there
Riff 1
Waiting for her sacrafice
Riff 1
To the greater good
Riff 1
All that remains is the knife

Prechorus:
Riff 2
Like a rabbit in a snare
Riff 3
Like a lover who doesn't care
Riff 2
Like a fox in a trap
Riff 3
Surrounded by the howling pack

Chorus:
g         Dsus4  G9    D11      A5
Ephemeral beauty lives unknown
Fsus2   Fm9            A        g        
Warming those on their own
Dsus4  G9       D11
Such a violent effigy
A5  Fsus2   Fm9      A 
All for nameless beauty

Riff 1 x 2

She lies there
Exhausted, no struggle left
So when the rough hands come
She decides "It's for the best"

Like a rabbit in a snare
Like a lover who doesn't care
Like a fox, in a trap
Torn asunder by the pack

Ephemeral beauty lives regardless
Even dead there's life in death
As a vile effigy
A parody of beauty

Riff 1 (strummed)

Riff 1 (strummed)
She dies there. We envy her

End on G
Comments