Mc Hammer - You Cant Touch This Chords & Tabs

 

You Cant Touch This Chords & Tabs

Mc Hammer Chords & Tabs

Version: 1 Type: Tab 0 ratings
1 star 2 stars 3 stars 4 stars 5 stars
comments

You Cant Touch This Tab

   
CANT TOUCH THIS   MC Hammer  (Intro)

Tuning: standard (e B G D A e)

e|-----------------------|
B|-----------------------|
G|-----------------------|
D|-----------------------|
A|-5-3-3-2-----------2-0-|
E|------------0-3--------|

e|-----------------------|
B|-----------------------|
G|-----------------------|
D|-----------------------|
A|-5-3-3-2-----------2-0-|
E|------------0-3--------|


[ Tab from: http://www.guitartabs.cc/tabs/m/mc_hammer/you_cant_touch_this_tab.html ]
This is really easy 2 learn, great 4 beginers and fun aswell!  

If you want to play this so it's more rock 'n' roll style, here are tabs for it below:

e|-------------------------|
B|-------------------------|
G|-7-5-5-4-------------4-2-|
D|-7-5-5-4----2-5------4-2-|
A|-5-3-3-2----2-5------2-0-|
E|------------0-3----------|

e|-------------------------|
B|-------------------------|
G|-7-5-5-4-------------4-2-|
D|-7-5-5-4----2-5------4-2-|
A|-5-3-3-2----2-5------2-0-|
E|------------0-3----------|

Enjoy, u can print it if u want, or anything else.  Have fun!
Comments