Mc5 - Looking At You Chords & Tabs

 

Looking At You Chords & Tabs

Mc5 Chords & Tabs

Version: 1 Type: Tab 0 ratings
1 star 2 stars 3 stars 4 stars 5 stars
comments

Looking At You Tab

Title: Looking at you
Artist: MC5
Tabbed by : Daniel Eilbeck
E~Mail : Damned_dan@hotmail.com
Tune : EADGBe (but a little sharp works best)

There are only 2 chords in this piece, but it is really effective. If you can get "The Damned" version. They really can blast the song about.

Chords: E5 (7th fret ,5th string root)
             D5 (5th fret ,5th string root)
[ Tab from: http://www.guitartabs.cc/tabs/m/mc5/looking_at_you_tab.html ]
Solo 1: 
------------------------------------------------------0--2--3------5--7--9--10--12--14--15--17--19--21-
-------------------------------------------0--1--3----------------------------------------------------------------
------------------------------------0--3---------------------------------------------------------------------------
-------------------------0--2--4----------------------------------------------------------------------------------
--------------0--2--3---------------------------------------------------------------------------------------------
---0--2--3--------------------------------------------------------------------------------------------------------
	  	
--21-b-x-5--s--19--s--17--s--15--s--14--s--12------------12-------------------------------------------
--------------------------------------------------------------15b--------15b-----12---------------------------
-------------------------------------------------------------------------------------------14--12--14--14b----
--------------------------------------------------------------------------------------------------------------------
--------------------------------------------------------------------------------------------------------------------
--------------------------------------------------------------------------------------------------------------------	

---------12----15-15-----12------12--15-15---12---------12--15-15-----15b-x4---17b-x-3---------
---12----------------------------15-----------------------15----------------------------------------------------
--------------------------------------------------------------------------------------------------------------------
--------------------------------------------------------------------------------------------------------------------
--------------------------------------------------------------------------------------------------------------------
--------------------------------------------------------------------------------------------------------------------

Any comments e~mail me at the above address.If anyone knows the other solos, please could you take the time to send them to me!!!
Comments