Mc5 - Come Together Chords & Tabs

 

Come Together Chords & Tabs

Mc5 Chords & Tabs

Version: 1 Type: Tab 0 ratings
1 star 2 stars 3 stars 4 stars 5 stars
comments

Come Together Tab


 Verse

e----------------------------------------------------|
B----------------------------------------------------|
G------------------------------5-5-5-x-7-x-5---------|
D--7-7-7--7--7--7--7--7--7--7--5-5-5-x-7-x-5---------|
A--7-7-7--7--7--7--7--7--7--7--3-3-3-x-5-x-3---------|
E--5-5-5--5--5--5--5--5--5--5------------------------|

   Solo 1

e---------------------------------------------------------------------------|
B--/10v-10v-10v-10v-10v-10v-10v-8-10-10/12-10-8--/10v-10v-10v-10v-10v-10v---|
G---------------------------------------------------------------------------|
D---------------------------------------------------------------------------|
A---------------------------------------------------------------------------|
E---------------------------------------------------------------------------|
   1:12

e------------------10----8h10-10-10-10-8-7-7h8-7--------------------|
B--10v-12-12-12-13----13-------------------------10-10h12-12p10\8---|
G-------------------------------------------------------------------|
D-------------------------------------------------------------------|
A-------------------------------------------------------------------|
E-------------------------------------------------------------------|
   1:17

[ Tab from: http://www.guitartabs.cc/tabs/m/mc5/come_together_tab.html ]
e-------------------------------------/15\--------|
B---8h10-10p8\7-8--8p6\5--7--7p5\4--9-------------|
G-------------------------------------------------|
D-------------------------------------------------|
A-------------------------------------------------|
E-------------------------------------------------|
    1:21                              Then Return
                                        to the verse.


   Interlude (Play this three times)

e------------------------------------------|
B---/14v--14v--14v--14\--------------------|
G---/14v--14v--14v--14\--5--x-7--x-5-------|
D------------------------5--x-7--x-5-------|
A------------------------3--x-5--x-3-------|
E------------------------------------------|

   Outro

e-----------------------------------------------------------------------|
B-----------------------12------14--12--14--12--14--12--14--12--14--12--|
G---------5------7------12------14--12--14--12--14--12--14--12--14--12--|
D--7------5------7------12------14--12--14--12--14--12--14--12--14--12--|
A--7------3------5------------------------------------------------------|
E--5--------------------------------------------------------------------|
   3:42


e--------------------------------------------------------------------------|
B--14--12--14--12--14--12--9--7--5--4--9--7--6--5--4---3---2-2-2-2-2-2-2-2-|
G--14--12--14--12--14--12--9--7--5--4--9--7--6--5--4---3---2-2-2-2-2-2-2-2-|
D--14--12--14--12--14--12--9--7--5--4--9--7--6--5--4---3---2-2-2-2-2-2-2-2-|
A----------------------------------------------------------2-2-2-2-2-2-2-2-|
E--------------------------------------------------------------------------|

e----------------------------------|
B---2-2-2-2-2-2-2-2--2-------2-----|
G---2-2-2-2-2-2-2-2--2-------2-----|
D---2-2-2-2-2-2-2-2--2-------2-----|
A---2-2-2-2-2-2-2-2--2-------2-----|
E----------------------------------|
Comments