Mazzy Star - Into Dust Chords & Tabs

 

Into Dust Chords & Tabs

Mazzy Star Chords & Tabs

Version: 4 Type: Tab 0 ratings
1 star 2 stars 3 stars 4 stars 5 stars
comments

Into Dust Tab

HeY. This is an amazing song which was featured in the show The O.C. This is mY first
time posting a tab ever and I think It sounds prettY Good. it's mY first tab so be nice.
anY comments e-mail me at ricky_pozeg69@hotmail.com ENJOY!

Order:

Intro   1X
Verse: 12X
Break1: 1X
Verse:  6X
Break2: 1X
Verse:  8X
Outro:  1X 

Intro:
e-----------------------------------------------------------------------------------|
B------3---3-----3---3----3---3----3---3--------------------------------------------|
G--------2---------2--------2--------2----------------------------------------------|
D---0---------0---------0--------0--------------------------------------------------|
A-----------------------------------------------------------------------------------|
E-----------------------------------------------------------------------------------|

Verses

e-----------------------------------------------------------------------------------|
B------3---3-----3---3----3---3----3---3-----3---3-----3---3-----3---3-----3---3----|
G--------2---------2--------2--------2---------0---------0---------0---------0------|
D---0---------0---------0--------0--------------------------------------------------|
A-----------------------------------------3---------3---------2---------2-----------|
E-----------------------------------------------------------------------------------|

Break 1: 1:59 Play Once Then Back To Verses
e-----------------------------------------------------------------------------------|
B------3---3-----3---3-----3---3-----3---3-----3---3-----3---3-----3---3-----3---3--|
G--------2---------2---------2---------2---------0---------0---------0---------0----|
D---0---------0---------0---------0---------3---------3---------2---------2---------|
A-----------------------------------------------------------------------------------|
E-----------------------------------------------------------------------------------|
[ Tab from: http://www.guitartabs.cc/tabs/m/mazzy_star/into_dust_tab_ver_4.html ]
Break 2: 3:19 Play Once Then Back To Verses 
e-----------------------------------------------------------------------------------|
B------3---3-----3---3-----3---3-----3---3------------------------------------------|
G--------0---------0---------0---------0--------------------------------------------|
D-----------------------------------------------------------------------------------|
A---1---------1---------1---------1-------------------------------------------------|
E-----------------------------------------------------------------------------------|


Outro: 5:02
e----------------------------7------7------------------------------|
B--3/8-----------8----------------8------8--------------8---------|
G--------------------7----------------------------7----------------|
D------------------------------------------------------------------|
A---------5--------------------------------------------------------|
E------------------------------------------------------------------|


e---------------------------5--------5-----------------------------|
B---------------6----------------6--------6-------------6----------|
G--------------------5----------------------------5----------------|
D------------------------------------------------------------------|
A---------3--------------------------------------------------------|
E------------------------------------------------------------------|

e----------------------------7-------7-------7---------------------|
B---------------8----------------8-------8------8------------------|
G-------------------7----------------------------------------------|
D------------------------------------------------------------------|
A---------5--------------------------------------------------------|
E------------------------------------------------------------------|

e----------------------------5---------------------5---------------|
B---------------6-----------------6----------6----------6----------|
G--------------------5------------------5--------------------------|
D------------------------------------------------------------------|
A---------3--------------------------------------------------------|
E------------------------------------------------------------------|

End On:

e----------|
B----------|
G----------|
D----0-----|
A----------|
E----------|
Comments