Mazzy Star - Into Dust Chords & Tabs

 

Into Dust Chords & Tabs

Mazzy Star Chords & Tabs

Version: 2 Type: Tab 0 ratings
1 star 2 stars 3 stars 4 stars 5 stars
comments

Into Dust Tab

This song, like most all other Mazzy Star songss is simple, 
but beautiful. It would be a good Idea To play along with 
the CD to get the rythm down.

Intro/Verse/Bridge

e|-----------------|-----------------|-------------------|
b|---3---3---3---3-|---3---3---3---3-|---3---3---3---3---|
g|-----2---2---2---|-----2---2---2---|-----2---2---2---2-|
D|-0---------------|-0---------------|-------------------|
A|-----------------|-----------------|-3-----------------|
E|-----------------|-----------------|-------------------|

e|-----------------|
b|---3---3---3---3-|
g|-----2---2---2---|
D|-----------------|
A|-2---------------|
E|-----------------|

Outro
[ Tab from: http://www.guitartabs.cc/tabs/m/mazzy_star/into_dust_tab_ver_2.html ]
e|-----------------|--------------------|
b|---6---6---6---6-|---6---6---6------6-|
g|-----5---5---5---|-----5---5----5-----|
D|-----------------|--------------------|
A|-6---------------|-5------------------|
E|-----------------|--------------------|

Still falling
Breathless and on again
Inside today
Beside me today
Around and broken in two
"till your eyes shed
Into Dust
Like two strangers 
Turning Into Dust
"till my hand shook with the way of fear

(bridge)

I could possibly fading
Or have something more to gain
I could feel myself growing colder
I could feel myself under your fate
Under your Fate

(bridge)

It was you breathless and tall
I could feel my eyes turning Into Dust
And two strangers turning Into Dust
Turning Into Dust

(bridge)

(outro)

The only part I'm unsure about is the outro, but it'll do.

Questions, Comments, Corrections...Bring 'em On

PeACe...
Comments