Mayonnaise - Tulog Chords & Tabs

 

Tulog Chords & Tabs

Mayonnaise Chords & Tabs

Version: 2 Type: Tab 0 ratings
1 star 2 stars 3 stars 4 stars 5 stars
comments

Tulog Tab

   
Song Title   :  Tulog
Band/Artist  :  Mayonnaise
Tabbed by    :  angelino cayabyab estandian jr. (a.k.a. ace)
Email        :  acetangent@yahoo.com
contact no   :  09163981421
Date         :  September 11,2005

this tab goes out to all my friends at saint louis university, baguio city
specially sa mga taga CEA!

Tuning: EADGBe (standard)

notes:
  1. sobrang dali po ng kanta.
     kung ano po ang intro, un na lahat.

intro:
[clean]
e|--------0----------|-------0-----------|
B|--------0----------|-------0-----------|
G|-------------------|-------------------|
D|-----------7---7---|----------7---7----|---------.
A|----7--------7-----|----7-------7------|          \
E|--5----------------|--4----------------|           \
                                                      \
e|---------0---------|----------------------------|    \ give emphasis
B|---------0---------|----------------------------|    / on base notes
G|-------------------|--------------------repeat--|   /
D|------4-----4---4--|------2---------------------|  /
A|----4---------4----|----2---2-------------------| /
E|--2----------------|--0--------2--4--5----------|
[ Tab from: http://www.guitartabs.cc/tabs/m/mayonnaise/tulog_tab_ver_2.html ]
repeat the intro but this time with the following power chords:
[distorted]
    A        A/G#      F#         E       
e|----------------------------------------------------------|
B|----------------------------------------------------------|
G|----------------------------------------------------------|
D|--7---------7---------4---------2---------4-7-7-----------|
A|--7-strum---7-strum---4-strum---2-strum---4-7-7--repeat---|
E|--5---------4---------2---------0---------2-4-5-----------|

lyrics:

[A-A/G#-F#-E]
Hindi ako makatulog... dahil gutom
Hindi ako makatulog... dahil sa'yo

[A-A/G#-F#-E]
Hindi ako matutulog dahil sayo...


[A-A/G#-F#-E]
Hindi ako makatulog, walang unan,
Hindi ako makakain, walang ulam,


[A-A/G#-F#-E]
Naglalakad pa tayong dalawa sa Luneta
ng bigla nalang meron palang nakakita...

[end]

++++++++++++++++++++++++++++++++++++++++++++++++++++++++++++++++++++++++++++

kung may tanong po kayo,txt nyo po
ako sa 09163981421 or ipadala nyo nlng po sa yahoo mail at acetangent@yahoo.com.
pede din po yan sa frndster.
Comments