Mayonnaise - Jopay Chords & Tabs

 

Jopay Chords & Tabs

Mayonnaise Chords & Tabs

Version: 1 Type: Tab 0 ratings
1 star 2 stars 3 stars 4 stars 5 stars
comments

Jopay Tab

   
Artist: Mayonnaise
Song: Jopay
Tabbed by: Mark Joseph Castillo
hehehe eto nnmn poh ako heheh sana magus2han nyo ang tab na ito

Intro:
e|------------|
B|------------|
G|------0-----|
D|----4---2---|
A|--5-----3---|
E|------------|


Verse:
e|-----------|
B|-----------|
G|-----------|
D|---4---2---|
A|---5---3---|
E|---0---3---|


Pre-Chorus:
e|-------------------|
B|-------------------|
G|---2---4---5---7---|
D|---2---4---5---7---|
A|-------2---3---5---|
E|-------------------|

[ Tab from: http://www.guitartabs.cc/tabs/m/mayonnaise/jopay_tab.html ]
Chorus:
     G   Am   Bm   Am
e|---3----------------|                                         |-----|
B|---3---1----3----1--|                                         |-----|
G|---0---2----4----2--|  or instead of Am yung huli, gawing C   |--1--|
D|---0---2----4----2--|                                         |--2--|
A|---2--------2-------|                                         |--3--|
E|---3----------------|                                         |-----|


Bridge:
e|---------------|
B|---------------|
G|---1-----------|
D|---2---4---5---|
A|---2---4---5---|
E|-------2---3---|


Song Order:

Intro
Verse
Pre-Chorus
Chorus
Verse
Pre-Chorus
Chorus
Bridge
Intro
Pre-Chorus
Chorus (5x)
Intro (fade)


salamat ulit sa mga band m8s ko!!
Comments