Mayonnaise - Jopay Chords & Tabs

 

Jopay Chords & Tabs

Mayonnaise Chords & Tabs

Version: 2 Type: Bass Tab 0 ratings
1 star 2 stars 3 stars 4 stars 5 stars
comments

Jopay Bass Tab

Title:Jopay
Artist:Mayonnaise
Tabbed by: Suhair Abangon

I am not 100% sure dito. Pero para saakin eto na ung pinaka astig na bass tabs ng Jopay.
(TAMA to!) Pakinggan nyo nalang yung song para sa timing.

Stanza 1

G|---------------------|
D|---------------------| Repeat 5x
A|--5---3--------------|     
E|---------------------|
     

G|---------------------|
D|----4-5--------------|
A|--5-----3------------|
E|---------------------|


G|---------------------|
D|----4-5--------------|
A|--5-----3-3(Break)---|
E|---------------------|


G|---------------------|
D|----4-5--------------| Repeat 3x
A|--5-----3------------|
E|---------------------|

Refrain:

G|--------------------------------------------------|
D|--------------------------------------------------|
A|-----------------2-2-2-2-2-2-2-2-3-3-3-3-5-5-5-5|
E|-5-5-5-5-5-5-5-5----------------------------------|

Chorus:

G|-------------------------------------------|
D|-------------------------------------------| Repeat 4x
A|-------------------------------------------|
E|--3-3-3-3-35-5-5-5-5--7-7-7-7-75-5-5-5-5-|

Stanza 2

(Repeat 1st stanza chords)
[ Tab from: http://www.guitartabs.cc/tabs/m/mayonnaise/jopay_btab_ver_2.html ]
Bass line
G|-------------|
D|--5h7-5-4-0--|
A|-------------|
E|-------------|


Adlib
G|-----------------------|
D|-----------------------| Repeat 3x
A|-----------------------|
E|--0-0--2-2--3-3-3-3-3--|

Solo Guitar
(Pagkatapos ng solo pasok sa refrain)
G|-------------------------------------------------------------------------|
D|-------------------------------------------------------------------------|
A|------------------2-2-2-2-2-2-2-2-3-3-3-3-5-5-5-5-3-3-3-3-5-5-5-5-5--|
E|--5-5-5-5-5-5-5-5--------------------------------------------------------|

(Solo ulit ng Guitar)

G|-----------|
D|-----------|
E|--5(hold)--|

Repeat Chorus 2x

G|-------------------------------------------------|
D|-------------------------------------------------| Repeat 3x
A|-------------------------------------------------|
E|--3-3-3-33--5-5-5-5-7-7-7-7-7-5(break)-5-5-5--|

G|----------------------|
D|----------------------| 
A|----------------------|
E|--3-3--5-5--7-7--5-5--|

G|-----------|
D|----4-5----|
A|--5-----3--|
E|-----------|
    Wakas

Inaalay ko tong song  na to sa lahat ng  gumagawa palang ng mga banda. Sana suportahan
natin ang bandang pinoy. Maraming salamat.
Comments