Mayonnaise - Dahil Chords & Tabs

 

Dahil Chords & Tabs

Mayonnaise Chords & Tabs

Version: 2 Type: Tab 0 ratings
1 star 2 stars 3 stars 4 stars 5 stars
comments

Dahil Tab

Title: Dahil
Artist: Mayonnaise
Ako nga pla ulit si Mark Joseph Castillo ng CCP
pangalawang tab ko na toh ng mayonnaise sana magus2han nyo tong tab ko

Intro:
e|---------------------------|	|---------------------------------|
B|---------------------------|	|---------------------------------|
G|---------------------------|	|------------------------------2--| 2x      
D|----6---6---------8--------| 	|----6---6---4---4--6--4-------2--|
A|--7---7---7-9-7-9---9-7-7--|	|--4---4---4---4---------7--7-----|
E|---------------------------|	|---------------------------------|



e|---------------------------|  |-------------------------------|
B|---------------------------|  |-------------------------------|
G|----1---1---------1--------|  |---------------------------2---| 2x
D|--2---2---2-4-2-4---4-2-2--|  |----1---1---4---4-6-4-2-1--2---| 
A|---------------------------|  |--2---2---2---2----------------|
E|---------------------------|  |-------------------------------|


Verse:
e|------------------|
B|----------5-------|
G|--1---1---6---2---| 
D|--2---2---6---2---|
A|--2---2---4-------|
E|------------------|

[ Tab from: http://www.guitartabs.cc/tabs/m/mayonnaise/dahil_tab_ver_2.html ]
Pre-chorus:
e|----------------------|
B|----------------------|
G|----------------------|
D|--4---7---4---7---9---|
A|--4---7---4---7---9---|
E|--2---5---2---5---7---|


Chorus:
e|---------------------------------|
B|------5--------------------------|
G|--9---6---4---------------4--2---|
D|--9---6---4---4h7---4h7---4--2---|
A|--7---4---2---4h7---4h7---2------|
E|--------------2h5---2h5----------| 


Bridge:
e|---------|------|
B|---------|------|
G|--6---4--|--7---|
D|--6---4--|--7---|
A|--4---2--|--5---|
E|---------|------|


Finale:
e|-----------|
B|--10h9--9--|
G|--9-----9--|
D|--7-----7--|
A|-----------|
E|-----------|


Song order: eto ung mga pag kaka sunodsunod   

Intro
Verse
Pre-Chorus
Chorus
Intro
Verse
Pre-Chorus
Chorus
Bridge
Intro
Chorus (2x)  
Finale

un lng bago ang lahat....
Hi nga pla sa mga Centralian at sa mga klasm8s ko sina
jourel "panga" Bacani
Joana "Dinosaur" Dino
Earl "Baboy" Munsayac
Jonathan "Manok" Punongbayan
Joan "....(Balat sa pwet) Advincula
Mark "Manyak" Buedron
Joemark "Yael" Salazar
at ako Mark joseph "POGI" Castillo hehehehe
hanggang sa nxt tab nlng
Comments