Mayonnaise - Bakit Part 1 Chords & Tabs

 

Bakit Part 1 Chords & Tabs

Mayonnaise Chords & Tabs

Version: 1 Type: Tab 0 ratings
1 star 2 stars 3 stars 4 stars 5 stars
comments

Bakit Part 1 Tab

   
Bago kayo mg basa ng Tab na toh...Ako nga pla c Mark Joseph Castillo
Nag aaral sa CCP...isa ako sa mga taga hanga ng Mayonnaise ksi zteg ung 2g2gan nila \m/

Standard Tuning
-Listen for all strumming, specially at the intro-

Intro:

e|----------------------------------------|
B|----------------------------------------|
G|--4--6h8--8--6--4--9--11h13--13--11--9--|(repeat)
D|--4--6h8--8--6--4--9--11h13--13--11--9--|
A|--2--4h6--6--4--2--7--9-h11--11--9---7--|
E|----------------------------------------|

e|---------------------------|
B|---------------------------|
G|--11h13--16--16--16--16----|
D|--11h13--16--16--16--16----|
A|--9h11---14--14--14--14----|
E|---------------------------|

Verse:

    E   F#m   G#   F#m
e|----------------------|
B|----------------------|
G|--1-------------------|
D|--2----4----6----4----|
A|--2----4----6----4----|
E|-------2----4----2----|

Chorus:

e|-----------------------------------------|
B|-----------------------------------------|
G|--9----4----9----4----9----4----2----4---|
D|--9----4----9----4----9----4----2----4---|
A|--7----2----7----2----7----2---------2---|
E|-----------------------------------------|

or
[ Tab from: http://www.guitartabs.cc/tabs/m/mayonnaise/bakit_part_1_tab.html ]
    C#		 A5     (repeat that then add this before the intro riff begins again) (this is 
of the \'bridge\' chords)
e|---------------------|-------------------|
B|---------------------|-------------------|
G|---6-----------2-----|--4----------------|
D|---6-----------2-----|--4----------------|
A|---4-----------------|--2----------------|
E|---------------------|-------------------|


then play the intro riff then verse then chorus again tapos this:


Bridge
     C#		 A5     (repeat that then add this before the intro riff begins again) (this is 
of the \'bridge\' chords)
e|---------------------|-------------------|
B|---------------------|-------------------|
G|---6-----------2-----|--4----------------|
D|---6-----------2-----|--4----------------|
A|---4-----------------|--2----------------|
E|---------------------|-------------------|


oh kaya eto:


e|-----------------------------------------|
B|-----------------------------------------|
G|--9----4----9----4----9----4----2----4---|
D|--9----4----9----4----9----4----2----4---|
A|--7----2----7----2----7----2---------2---|
E|-----------------------------------------|

then chorus until fade.
kung di nyo maintindihan pa kinggan nyo mabuti tong kant ng mayonnaise

Hi nga pla sa mga fwendz ko RAMP Avic,Ron,Paul,Phoy at tsaka sa mga magulang ko....nay 
i luv you =)
Comments